PrimaNota.ru - самый крупный в мире бесплатный архив песенных текстов, аккордов, табулатур и нот


Booker, T - Neon Moon (feat. The M Gs) - бас-таба, видео

Регистрация Запомнить меня
Войти через:  Facebook Google Twitter Vk Yandex Mail.ru

Booker, T - Neon Moon (feat. The M Gs) - бас-таба, видео

Печатать
Просмотров: 204
booker t.& the mg's-neon_moon

TablEdited by Jan Bjorklund, Finland  jani_bjorklund@yahoo.se>
You are welcome to request for tabs!
Fingering and positions as suggested by TablEdit, please use common sense!

TablEdited by Jan Bjorklund
Tuning : E A D G 	Time Signature: 4/4

   |       |       |       |          |       |       |       |
|----------------------------------|----------------------------------|
|-------------------------0--------|-------------------------0--------|
|-------------2--------------------|-------------2--------------------|
|-3--------------------------------|-3--------------------------------|

   |       |       |       |          |       |       |       |
|----------------------------------|----------------------------------|
|-------------------------0--------|-------------------------0--------|
|-------------2--------------------|-------------2--------------------|
|-3--------------------------------|-3--------------------------------|

   |       |       |       |          |       |       |       |
||---------------------------------|---------------------------------||
|*------------------------0--------|-------------------------0-------*|
|*------------2--------------------|-------------2-------------------*|
||3--------------------------------|-3-------------------------------||

   |       |       |       |          |       |       |       |
|----------------------------------|----------------------------------|
|-------------------------0--------|-------------------------0--------|
|-------------2--------------------|-------------2---2----------------|
|-3--------------------------------|-3--------------------------------|

   |       |       |       |          |       |       |       |
|-------------------------0--------|-------------------------0--------|
|-------------2--------------------|-------------2---2----------------|
|-3--------------------------------|-3--------------------------------|
|----------------------------------|----------------------------------|

   |       |       |       |        >1|       |       |       |
|---------------------------------||----------------------------------|
|-------------------------0-------||----------------------------------|
|-------------2-------------------||-------------2-----------3--------|
|-3-------------------------------||-3--------------------------------|

   |       |       |       |          |       |       |       |
|-------------------------2--------|-------------------------2--------|
|-0-----------4--------------------|-0-----------4--------------------|
|----------------------------------|----------------------------------|
|----------------------------------|----------------------------------|

   |       |       |       |          |       |       |       |
|----------------------------------|----------------------------------|
|-------------------------0--------|----------------------------------|
|-------------2--------------------|-----------------0-------2--------|
|-3--------------------------------|-3-----------3--------------------|

   |       |       |       |          |       |       |       |
|-------------------------0--------|-------------------------2--------|
|-------------2--------------------|-0-----------4--------------------|
|-3--------------------------------|----------------------------------|
|----------------------------------|----------------------------------|

   |       |       |       |          |       |       |       |
|-------------------------0--------|-------------4---2----------------|
|-------------2--------------------|-------------------------4--------|
|-3--------------------------------|-5--------------------------------|
|----------------------------------|----------------------------------|

   |       |       |       |          |       |       |       |
|-------------------------0--------|-------------------------2--------|
|-------------2--------------------|-0-----------4--------------------|
|-3--------------------------------|----------------------------------|
|----------------------------------|----------------------------------|

   |       |       |       |          |       |       |       |
|----------------------------------|---------------------------------||
|-------------------------0--------|-------------------------0-------*|
|-------------2--------------------|-------------2-------------------*|
|-3--------------------------------|-3-------------------------------||

 >2|       |       |       |          |       |       |       |
|----------------------------------|----------------------------------|
|-------------------------0--------|-------------------------0--------|
|-------------2--------------------|-------------2--------------------|
|-3--------------------------------|-3--------------------------------|

   |       |       |       |          |       |       |       |
|-------------------------2--------|-------------------------2--------|
|-0-----------4--------------------|-0-----------4--------------------|
|----------------------------------|----------------------------------|
|----------------------------------|----------------------------------|

   |       |       |       |          |       |       |       |
|----------------------------------|----------------------------------|
|-0--------------------------------|----------------------------------|
|----------------------------------|----------------------------------|
|----------------------------------|----------------------------------|

   |       |       |       |          |       |       |       |
|----------------------------------|----------------------------------|
|-------------------------0--------|-------------------------0--------|
|-------------2--------------------|-------------2--------------------|
|-3--------------------------------|-3--------------------------------|

   |       |       |       |
|----------------------------------|
|----------------------------------|
|----------------------------------|
|-3--------------------------------|


Created with TablEdit http://www.tabledit.com/

     
Добавлено: 22.06.2013
Другие материалы по этой песне:
  • Аккорды и текст

Страница создана 22.06.2013
http://primanota.ru/booker-t/neon-moon-chords.htm
Привет, Гость.
Предлагаем пройти революционный курс по гитаре.
Подарок от PrimaNota.Ru, забирай!