PrimaNota.ru - самый крупный в мире бесплатный архив песенных текстов, аккордов, табулатур и нот


Booker, T - Hip Hugger (feat. The M Gs) - бас-таба, видео

Регистрация Запомнить меня
Войти через:  Facebook Google Twitter Vk Yandex Mail.ru

Booker, T - Hip Hugger (feat. The M Gs) - бас-таба, видео

Печатать
Просмотров: 214
booker t.& the mg's-hip_hugger

TablEdited by Jan Bjorklund, Finland  jani_bjorklund@yahoo.se>
You are welcome to request for tabs!
Fingering and positions as suggested by TablEdit, please use common sense!

TablEdited by Jan Bjorklund
Tuning : E A D G 	Time Signature: 4/4

   |               |               |               |
|------------------------------------------------------------------|
|-----------------------------------------0-------1-------3--------|
|------------------------------------------------------------------|
|------------------------------------------------------------------|

   |               |               |               |
|-3----------------------------------------------------------------|
|-----------------------------------------0-------1-------3--------|
|---------1--------------------------------------------------------|
|------------------------------------------------------------------|

   |               |               |               |
|---------3--------------------------------------------------------|
|-----------------------------------------0-------1-------3--------|
|-----------------1------------------------------------------------|
|------------------------------------------------------------------|

   |               |               |               |
|-3----------------------------------------------------------------|
|-----------------------------------------0-------1-------3--------|
|---------1--------------------------------------------------------|
|------------------------------------------------------------------|

   |               |               |               |
||--------3--------------------------------------------------------|
|*----------------------------------------0-------1-------3--------|
|*----------------1------------------------------------------------|
||-----------------------------------------------------------------|

   |               |               |               |
||3----------------------------------------------------------------|
|*----------------------------------------0-------1-------3--------|
|*--------1--------------------------------------------------------|
||-----------------------------------------------------------------|

   |               |               |               |
|-3----------------------------------------------------------------|
|-----------------------------------------0-------1-------3--------|
|---------1--------------------------------------------------------|
|------------------------------------------------------------------|

   |               |               |               |
|-3---------------------------------------------------------------||
|-----------------------------------------0-------1-------3-------||
|---------1-------------------------------------------------------||
|-----------------------------------------------------------------||

 >1|               |               |               |
|---------3-------------------------------0-------1-------3--------|
|------------------------------------------------------------------|
|-----------------1------------------------------------------------|
|------------------------------------------------------------------|

   |               |               |               |
|-8----------------------------------------------------------------|
|-----------------------------------------5-------6-------8--------|
|---------6--------------------------------------------------------|
|------------------------------------------------------------------|

   |               |               |               |
|-8----------------------------------------------------------------|
|-----------------------------------------5-------6-------8--------|
|---------6--------------------------------------------------------|
|------------------------------------------------------------------|

   |               |               |               |
|-8----------------------------------------------------------------|
|-----------------------------------------5-------6-------8--------|
|---------6--------------------------------------------------------|
|------------------------------------------------------------------|

   |               |               |               |
|---------8-------------------------------------------------------||
|-----------------------------------------------------------------*|
|-----------------6-----------------------5-------6-------8-------*|
|-----------------------------------------------------------------||

 >2|               |               |               |
|---------3--------------------------------------------------------|
|-----------------------------------------0-------1-------3--------|
|-----------------1------------------------------------------------|
|------------------------------------------------------------------|

   |               |               |               |
|------------------------------------------------------------------|
|------------------------------------------------------------------|
|-1-------1---------------1-------1--------------------------------|
|------------------------------------------------------------------|

   |               |               |               |
|------------------------------------------------------------------|
|------------------------------------------------------------------|
|-4-----------------------4-------4--------------------------------|
|------------------------------------------------------------------|

   |               |               |               |
|------------------------------------------------------------------|
|-4-------------------------------------------------------1--------|
|------------------------------------------------------------------|
|------------------------------------------------------------------|

   |               |               |               |
|------------------------------------------------------------------|
|-----------------------------------------0-------1-------3--------|
|------------------------------------------------------------------|
|------------------------------------------------------------------|

   |               |               |               |
|---------3--------------------------------------------------------|
|-----------------------------------------0-------1-------3--------|
|-----------------1------------------------------------------------|
|------------------------------------------------------------------|

   |               |               |               |
|---------3--------------------------------------------------------|
|-----------------------------------------0-------1-------3--------|
|-----------------1------------------------------------------------|
|------------------------------------------------------------------|

   |               |               |               |
|---------3--------------------------------------------------------|
|-----------------------------------------0-------1-------2--------|
|-----------------1------------------------------------------------|
|------------------------------------------------------------------|

   |               |               |               |
|------------------------------------------------------------------|
|-3---------------3---------------3---------------3----------------|
|------------------------------------------------------------------|
|------------------------------------------------------------------|

   |               |               |               |
|------------------------------------------------------------------|
|-1----------------------------------------------------------------|
|------------------------------------------------------------------|
|------------------------------------------------------------------|

   |               |               |               |
|------------------------------------------------------------------|
|------------------------------------------------------------------|
|-1----------------------------------------------------------------|
|------------------------------------------------------------------|

   |               |               |               |
|------------------------------------------------------------------|
|------------------------------------------------------------------|
|------------------------------------------------------------------|
|------------------------------------------------------------------|

   |               |               |               |
|-3----------------------------------------------------------------|
|-----------------------------------------0-------1-------3--------|
|---------1--------------------------------------------------------|
|------------------------------------------------------------------|

   |               |               |               |
|---------3--------------------------------------------------------|
|-----------------------------------------0-------1-------3--------|
|-----------------1------------------------------------------------|
|------------------------------------------------------------------|

   |               |               |               |
|-3----------------------------------------------------------------|
|-----------------------------------------0-------1-------3--------|
|---------1--------------------------------------------------------|
|------------------------------------------------------------------|

   |               |               |               |
|---------3--------------------------------------------------------|
|-----------------------------------------0-------1-------3--------|
|-----------------1------------------------------------------------|
|------------------------------------------------------------------|

   |               |               |               |
|-3----------------------------------------------------------------|
|-----------------------------------------0-------1-------3--------|
|---------1--------------------------------------------------------|
|------------------------------------------------------------------|

   |               |               |               |
|-3----------------------------------------------------------------|
|-----------------------------------------0-------1-------3--------|
|---------1--------------------------------------------------------|
|------------------------------------------------------------------|

   |               |               |               |
|-3----------------------------------------------------------------|
|-----------------------------------------0-------1-------3--------|
|---------1--------------------------------------------------------|
|------------------------------------------------------------------|

   |               |               |               |
|---------3--------------------------------------------------------|
|-----------------------------------------0-------1-------3--------|
|-----------------1------------------------------------------------|
|------------------------------------------------------------------|

   |               |               |               |
||3----------------------------------------------------------------|
|*----------------------------------------0-------1-------3--------|
|*--------1--------------------------------------------------------|
||-----------------------------------------------------------------|

   |               |               |               |
|---------3-------------------------------------------------------||
|-----------------------------------------0-------1-------3-------*|
|-----------------1-----------------------------------------------*|
|-----------------------------------------------------------------||

   |               |               |               |
|-3----------------------------------------------------------------|
|------------------------------------------------------------------|
|---------1---------------1-------1--------------------------------|
|------------------------------------------------------------------|

   |               |               |               |
|------------------------------------------------------------------|
|-----------------------------------------0-------1-------3--------|
|------------------------------------------------------------------|
|------------------------------------------------------------------|

   |               |               |               |
|---------3--------------------------------------------------------|
|------------------------------------------------------------------|
|-----------------1------------------------------------------------|
|------------------------------------------------------------------|

   |               |               |               |
|------------------------------------------------------------------|
|------------------------------------------------------------------|
|-1----------------------------------------------------------------|
|------------------------------------------------------------------|




Created with TablEdit http://www.tabledit.com/

     
Добавлено: 22.09.2013
Другие материалы по этой песне:
  • Аккорды и текст

Страница создана 22.09.2013
http://primanota.ru/booker-t/hip-hugger-chords.htm
Привет, Гость.
Предлагаем пройти революционный курс по гитаре.
Подарок от PrimaNota.Ru, забирай!