PrimaNota.ru - самый крупный в мире бесплатный архив песенных текстов, аккордов, табулатур и нот


Booker, T - Hard Working Man (feat. The M Gs) - бас-таба, видео

Регистрация Запомнить меня
Войти через:  Facebook Google Twitter Vk Yandex Mail.ru

Booker, T - Hard Working Man (feat. The M Gs) - бас-таба, видео

Печатать
Просмотров: 293
Уроки эстрадного вокала в Санкт-Петербурге
booker t.&mg's-hard_workin_man

TablEdited by Jan Bjorklund, Finland  jani_bjorklund@yahoo.se>
You are welcome to request for tabs!
Fingering and positions as suggested by TablEdit, please use common sense!

TablEdited by Jan Bjorklund
Tuning : E A D G 	Time Signature: 4/4

   |               |               |               |
|------------------------------------------------------------------|
|------------------------------------------------------------------|
|------------------------------------------------------------------|
|-----------------------------------------0-------3-------4--------|

   |               |               |               |
|------------------------------------------------------------------|
|------------------------------------------------------------------|
|-0---------------0-------0-------0-------0-------0-------0--------|
|------------------------------------------------------------------|

   |               |               |               |
|------------------------------------------------------------------|
|------------------------------------------------------------------|
|-0-------0-------0-------0-------0-------0-------0-------0--------|
|------------------------------------------------------------------|

   |               |               |               |
|------------------------------------------------------------------|
|------------------------------------------------------------------|
|-0-------0-------0-------0-------0--------------------------------|
|-----------------------------------------0-------2-------0--------|

   |               |               |               |
|------------------------------------------------------------------|
|------------------------------------------------------------------|
|-0----------------------------------------------------------------|
|------------------------------------------------------------------|

   |               |               |               |
|------------------------------------------------------------------|
|------------------------------------------------------------------|
|-0---------------0-------0-------0-------0-------0-------0--------|
|------------------------------------------------------------------|

   |               |               |               |
|------------------------------------------------------------------|
|------------------------------------------------------------------|
|-0-------0-------0-------0-------0-------0-------0-------0--------|
|------------------------------------------------------------------|

   |               |               |               |
|------------------------------------------------------------------|
|------------------------------------------------------------------|
|-0-------0-------0-------0-------0-------0-------0-------0--------|
|------------------------------------------------------------------|

   |               |               |               |
|------------------------------------------------------------------|
|------------------------------------------------------------------|
|-0-------0-------0-------0-------0-------0-------0----------------|
|---------------------------------------------------------0--------|

   |               |               |               |
|------------------------------------------------------------------|
|-0---------------0-------0-------0-------0-------0-------0--------|
|------------------------------------------------------------------|
|------------------------------------------------------------------|

   |               |               |               |
|------------------------------------------------------------------|
|-0-------0-------0-------0-------0-------0-------0----------------|
|------------------------------------------------------------------|
|---------------------------------------------------------3--------|

   |               |               |               |
|------------------------------------------------------------------|
|------------------------------------------------------------------|
|-0---------------0-------0-------0-------0-------0-------0--------|
|------------------------------------------------------------------|

   |               |               |               |
|------------------------------------------------------------------|
|------------------------------------------------------------------|
|-0-------0-------0-------0-------0-------0-------0----------------|
|---------------------------------------------------------3--------|

   |               |               |               |
|------------------------------------------------------------------|
|------------------------------------------------------------------|
|------------------------------------------------------------------|
|-0---------------0-------0-------0-------0-------0-------0--------|

   |               |               |               |
|------------------------------------------------------------------|
|------------------------------------------------------------------|
|------------------------------------------------------------------|
|-0-------0-------0-------0-------0-------0-------0-------3--------|

   |               |               |               |
|------------------------------------------------------------------|
|------------------------------------------------------------------|
|-0----------------------------------------------------------------|
|------------------------------------------------------------------|

   |               |               |               |
|------------------------------------------------------------------|
|------------------------------------------------------------------|
|------------------------------------------------------------------|
|------------------------------------------------------------------|

   |               |               |               |
|------------------------------------------------------------------|
|-0---------------0---------------0-------0-------0----------------|
|---------------------------------------------------------3--------|
|------------------------------------------------------------------|

   |               |               |               |
|------------------------------------------------------------------|
|------------------------------------------------------------------|
|---------3-------3-------3-------3-------3-------3----------------|
|---------------------------------------------------------3--------|

   |               |               |               |
|------------------------------------------------------------------|
|------------------------------------------------------------------|
|-0---------------0-------0-------0-------0-------0-------0--------|
|------------------------------------------------------------------|

   |               |               |               |
|------------------------------------------------------------------|
|------------------------------------------------------------------|
|-0-------0-------0-------0-------0-------0-------0----------------|
|---------------------------------------------------------3--------|

   |               |               |               |
|------------------------------------------------------------------|
|------------------------------------------------------------------|
|------------------------------------------------------------------|
|-0---------------0-------0-------0-------0-------0-------0--------|

   |               |               |               |
|------------------------------------------------------------------|
|------------------------------------------------------------------|
|------------------------------------------------------------------|
|-0-------0-------0-------0-------0-------0-------0-------3--------|

   |               |               |               |
|------------------------------------------------------------------|
|------------------------------------------------------------------|
|-0---------------0-------0-------0-------0-------0-------0--------|
|------------------------------------------------------------------|

   |               |               |               |
|------------------------------------------------------------------|
|------------------------------------------------------------------|
|-3-------4-------0-------0-----------------------0----------------|
|---------------------------------3-------3------------------------|

   |               |               |               |
|------------------------------------------------------------------|
|-0---------------0---------------0-------0-------0----------------|
|---------------------------------------------------------3--------|
|------------------------------------------------------------------|

   |               |               |               |
|------------------------------------------------------------------|
|------------------------------------------------------------------|
|---------3-------3-------3-------3-------3-------3----------------|
|---------------------------------------------------------3--------|

   |               |               |               |
|------------------------------------------------------------------|
|------------------------------------------------------------------|
|-0---------------0-------0-------0-------0-------0-------0--------|
|------------------------------------------------------------------|

   |               |               |               |
|------------------------------------------------------------------|
|------------------------------------------------------------------|
|-0-------0-------0-------0-------0-------0-------0----------------|
|---------------------------------------------------------3--------|

   |               |               |               |
|------------------------------------------------------------------|
|------------------------------------------------------------------|
|------------------------------------------------------------------|
|-0---------------0-------0-------0-------0-------0-------0--------|

   |               |               |               |
|------------------------------------------------------------------|
|------------------------------------------------------------------|
|------------------------------------------------------------------|
|-0-------0-------0-------0-------0-------0-------0-------3--------|

   |               |               |               |
|------------------------------------------------------------------|
|------------------------------------------------------------------|
|-0---------------0-------0-------0-------0-------0-------0--------|
|------------------------------------------------------------------|

   |               |               |               |
|------------------------------------------------------------------|
|-------------------------------------------------1-------1--------|
|-0-------0--------------------------------------------------------|
|-----------------3-------3-------0-------0------------------------|

   |               |               |               |
|------------------------------------------------------------------|
|-0---------------0-------0-------0-------0-------0----------------|
|---------------------------------------------------------3--------|
|------------------------------------------------------------------|

   |               |               |               |
|------------------------------------------------------------------|
|------------------------------------------------------------------|
|---------3-------3-------3-------3-------3-------3----------------|
|---------------------------------------------------------3--------|

   |               |               |               |
|------------------------------------------------------------------|
|------------------------------------------------------------------|
|-0---------------0-------0-------0-------0-------0-------0--------|
|------------------------------------------------------------------|

   |               |               |               |
|------------------------------------------------------------------|
|-------------------------------------------------0-------1--------|
|---------0-------0-------0-------0-------4------------------------|
|-4----------------------------------------------------------------|

   |               |               |               |
|------------------------------------------------------------------|
|------------------------------------------------------------------|
|------------------------------------------------------------------|
|-0---------------0-------0-------0-------0-------0-------0--------|

   |               |               |               |
|------------------------------------------------------------------|
|------------------------------------------------------------------|
|------------------------------------------------------------------|
|-0-------0-------0-------0-------0-------0-------0-------0--------|

   |               |               |               |
|------------------------------------------------------------------|
|------------------------------------------------------------------|
|-0---------------0-------0-------0-------0-------0-------0--------|
|------------------------------------------------------------------|

   |               |               |               |
|------------------------------------------------------------------|
|------------------------------------------------------------------|
|-3-------4-------0-------0-------3-------4-------0-------0--------|
|------------------------------------------------------------------|

   |               |               |               |
|------------------------------------------------------------------|
|-0---------------0-------0-------0-------0-------0----------------|
|---------------------------------------------------------3--------|
|------------------------------------------------------------------|

   |               |               |               |
|------------------------------------------------------------------|
|------------------------------------------------------------------|
|---------3-------3-------3-------3-------3------------------------|
|-------------------------------------------------3-------4--------|

   |               |               |               |
|------------------------------------------------------------------|
|------------------------------------------------------------------|
|-0---------------0-------0-------0-------0-------0-------0--------|
|------------------------------------------------------------------|

   |               |               |               |
|------------------------------------------------------------------|
|------------------------------------------------------------------|
|-0-------0-------0-------0-------0-------0-------0----------------|
|---------------------------------------------------------3--------|

   |               |               |               |
|------------------------------------------------------------------|
|------------------------------------------------------------------|
|------------------------------------------------------------------|
|-0---------------0-------0-------0-------0-------0-------0--------|

   |               |               |               |
|------------------------------------------------------------------|
|------------------------------------------------------------------|
|------------------------------------------------------------------|
|-0-------0-------0-------0-------0-------0-------0-------3--------|

   |               |               |               |
|------------------------------------------------------------------|
|------------------------------------------------------------------|
|-0---------------0-------0-------0-------0-------0-------0--------|
|------------------------------------------------------------------|

   |               |               |               |
|------------------------------------------------------------------|
|------------------------------------------------------------------|
|-0----------------------------------------------------------------|
|------------------------------------------------------------------|

   |               |               |               |
|------------------------------------------------------------------|
|------------------------------------------------------------------|
|-0---------------0-------0-------0-------0-------0-------0--------|
|------------------------------------------------------------------|

   |               |               |               |
|------------------------------------------------------------------|
|------------------------------------------------------------------|
|-0-------0-------0-------0-------0-------0-------0-------0--------|
|------------------------------------------------------------------|

   |               |               |               |
|------------------------------------------------------------------|
|------------------------------------------------------------------|
|-0-------0-------0-------0-------0-------0-------0-------0--------|
|------------------------------------------------------------------|

   |               |               |               |
|------------------------------------------------------------------|
|------------------------------------------------------------------|
|-0-------0-------0-------0-------0-------0-------3-------4--------|
|------------------------------------------------------------------|

   |               |               |               |
|------------------------------------------------------------------|
|-0---------------0-------0-------0-------0-------0-------0--------|
|------------------------------------------------------------------|
|------------------------------------------------------------------|

   |               |               |               |
|------------------------------------------------------------------|
|-0-------0-------0-------0-------0-------0-------0----------------|
|------------------------------------------------------------------|
|---------------------------------------------------------3--------|

   |               |               |               |
|------------------------------------------------------------------|
|------------------------------------------------------------------|
|-0---------------0-------0-------0-------0-------0-------0--------|
|------------------------------------------------------------------|

   |               |               |               |
|------------------------------------------------------------------|
|------------------------------------------------------------------|
|-0-------0-------0-------0-------0-------0-------0----------------|
|---------------------------------------------------------3--------|

   |               |               |               |
|------------------------------------------------------------------|
|------------------------------------------------------------------|
|------------------------------------------------------------------|
|-0---------------0-------0-------0-------0-------0-------0--------|

   |               |               |               |
|------------------------------------------------------------------|
|------------------------------------------------------------------|
|------------------------------------------------------------------|
|-0-------0-------0-------0-------0-------0-------3-------0--------|

   |               |               |               |
|------------------------------------------------------------------|
|------------------------------------------------------------------|
|-0----------------------------------------------------------------|
|------------------------------------------------------------------|

   |               |               |               |
|------------------------------------------------------------------|
|------------------------------------------------------------------|
|-------------------------------------------------0----------------|
|------------------------------------------------------------------|

   |               |               |               |
|------------------------------------------------------------------|
|-0---------------0-------0-------0-------0-------0----------------|
|---------------------------------------------------------3--------|
|------------------------------------------------------------------|

   |               |               |               |
|------------------------------------------------------------------|
|------------------------------------------------------------------|
|---------3-------3-------3-------3--------------------------------|
|-------------------------------------------------3-------4--------|

   |               |               |               |
|------------------------------------------------------------------|
|------------------------------------------------------------------|
|-0---------------0-------0-------0-------0-------0-------0--------|
|------------------------------------------------------------------|

   |               |               |               |
|------------------------------------------------------------------|
|------------------------------------------------------------------|
|-0-------0-------0-------0-------0-------0-------0-------0--------|
|------------------------------------------------------------------|

   |               |               |               |
|------------------------------------------------------------------|
|------------------------------------------------------------------|
|------------------------------------------------------------------|
|-0---------------0-------0-------0-------0-------0-------0--------|

   |               |               |               |
|------------------------------------------------------------------|
|------------------------------------------------------------------|
|------------------------------------------------------------------|
|-0-------0-------0-------0-------0-------0-------0-------3--------|

   |               |               |               |
|------------------------------------------------------------------|
|------------------------------------------------------------------|
|-0---------------0-------0-------0-------0-------0-------0--------|
|------------------------------------------------------------------|

   |               |               |               |
|------------------------------------------------------------------|
|------------------------------------------------------------------|
|-3-------4-------0-------0-------3-------4-------0-------0--------|
|------------------------------------------------------------------|

   |               |               |               |
|------------------------------------------------------------------|
|-0---------------0-------0-------0-------0-------0----------------|
|---------------------------------------------------------3--------|
|------------------------------------------------------------------|

   |               |               |               |
|------------------------------------------------------------------|
|------------------------------------------------------------------|
|---------3-------3-------3-------3-------3-------3----------------|
|---------------------------------------------------------3--------|

   |               |               |               |
|------------------------------------------------------------------|
|------------------------------------------------------------------|
|-0---------------0-------0-------0-------0-------0-------0--------|
|------------------------------------------------------------------|

   |               |               |               |
|------------------------------------------------------------------|
|------------------------------------------------------------------|
|-0-------0-------0-------0-------0-------0-------0----------------|
|---------------------------------------------------------3--------|

   |               |               |               |
|------------------------------------------------------------------|
|------------------------------------------------------------------|
|------------------------------------------------------------------|
|-0---------------0-------0-------0-------0-------0-------0--------|

   |               |               |               |
|------------------------------------------------------------------|
|------------------------------------------------------------------|
|------------------------------------------------------------------|
|-0-------0-------0-------0-------0-------0-------0-------3--------|

   |               |               |               |
|------------------------------------------------------------------|
|------------------------------------------------------------------|
|-0---------------0-------0-------0-------0-------0-------0--------|
|------------------------------------------------------------------|

   |               |               |               |
|------------------------------------------------------------------|
|------------------------------------------------------------------|
|-0-------0-------0-------0-------0-------0-------0----------------|
|---------------------------------------------------------3--------|

   |               |               |               |
|------------------------------------------------------------------|
|------------------------------------------------------------------|
|------------------------------------------------------------------|
|-0---------------0-------0-------0-------0-------0-------0--------|

   |               |               |               |
|------------------------------------------------------------------|
|------------------------------------------------------------------|
|------------------------------------------------------------------|
|-0-------0-------0-------0-------0-------0-------0-------3--------|

   |               |               |               |
|------------------------------------------------------------------|
|------------------------------------------------------------------|
|-0---------------0-------0-------0-------0-------0-------0--------|
|------------------------------------------------------------------|

   |               |               |               |
|------------------------------------------------------------------|
|------------------------------------------------------------------|
|-0-------0-------0-------0-------0-------0-------0----------------|
|---------------------------------------------------------3--------|

   |               |               |               |
|------------------------------------------------------------------|
|------------------------------------------------------------------|
|------------------------------------------------------------------|
|-0---------------0-------0-------0-------0-------0-------0--------|

   |               |               |               |
|------------------------------------------------------------------|
|------------------------------------------------------------------|
|------------------------------------------------------------------|
|-0----------------------------------------------------------------|

   |               |               |               |
|------------------------------------------------------------------|
|------------------------------------------------------------------|
|------------------------------------------------------------------|
|------------------------------------------------------------------|

   |               |               |               |
|------------------------------------------------------------------|
|-----------------------------------------0------------------------|
|------------------------------------------------------------------|
|------------------------------------------------------------------|

   |               |               |               |
|------------------------------------------------------------------|
|---------2-------1-------0---------------0------------------------|
|---------------------------------3---------------3-------0--------|
|------------------------------------------------------------------|

   |               |               |               |
|------------------------------------------------------------------|
|------------------------------------------------------------------|
|------------------------------------------------------------------|
|------------------------------------------------------------------|

   |               |               |               |
|------------------------------------------------------------------|
|------------------------------------------------------------------|
|---------------------------------------------------------0--------|
|------------------------------------------------------------------|



Created with TablEdit http://www.tabledit.com/

     
Добавлено: 24.09.2013
Другие материалы по этой песне:
  • Аккорды и текст

Страница создана 24.09.2013
http://primanota.ru/booker-t/hard-working-man-chords.htm
Привет, Гость.
Предлагаем пройти революционный курс по гитаре.
Подарок от PrimaNota.Ru, забирай!