PrimaNota.ru - самый крупный в мире бесплатный архив песенных текстов, аккордов, табулатур и нот


Booker, T - Cooldrink (feat. The M Gs) - бас-таба, видео

Регистрация Запомнить меня
Войти через:  Facebook Google Twitter Vk Yandex Mail.ru

Booker, T - Cooldrink (feat. The M Gs) - бас-таба, видео

Печатать
Просмотров: 237
bookerT and the MG's-cooldrink

TablEdited by Jan Bjorklund, Finland  jani_bjorklund@yahoo.se>
You are welcome to request for tabs!
Fingering and positions as suggested by TablEdit, please use common sense!


TablEdited by Jan Bjorklund
Tuning : E A D G 	Time Signature: 4/4

   |       |       |       |          |       |       |       |
|----------------------------------||----------------7-----------7----|
|---------2-------3-------4--------|*5-----------5--------------------|
|-----5----------------------------|*---------------------------------|
|----------------------------------||---------------------------------|

   |       |       |       |          |       |       |       |
|-----------------7-----------7---||-----------------7-----------7----|
|-5-----------5-------------------*|-5-----------5--------------------|
|---------------------------------*|----------------------------------|
|---------------------------------||----------------------------------|

   |       |       |       |          |       |       |       |
|-----------------7----------------||----------------7-----------7----|
|-5-----------5--------------------|*5-----------5--------------------|
|-----------------------------5----|*---------------------------------|
|----------------------------------||---------------------------------|

   |       |       |       |          |       |       |       |
|-0-----------0-------------------||-0-----------0--------------------|
|-----------------0-----------0---*|-----------------0-----------0----|
|---------------------------------*|----------------------------------|
|---------------------------------||----------------------------------|

   |       |       |       |          |       |       |       |
|-0-----------0-------0---0---0----|-0-----------0--------------------|
|-----------------0----------------|-----------------0-----------0----|
|----------------------------------|----------------------------------|
|----------------------------------|----------------------------------|

   |       |       |       |          |       |       |       |
|-0-----------0-------0------------|-0---------------0-----------0----|
|-----------------0-------2---3----|----------------------------------|
|----------------------------------|----------------------------------|
|----------------------------------|----------------------------------|

   |       |       |       |          |       |       |       |
|-0-----------0---0-----------0----|-0-----------0---0-----------0----|
|----------------------------------|----------------------------------|
|----------------------------------|----------------------------------|
|----------------------------------|----------------------------------|

   |       |       |       |          |       |       |       |
|-0-----------0---0-----------0----||---------------------------------|
|----------------------------------|*---------------------------------|
|----------------------------------|*3-----------3--------------------|
|----------------------------------||----------------3-----------3----|

   |       |       |       |          |       |       |       |
|-------------------------0-------||---------5------------------------|
|---------------------------------*|----------------------------------|
|-3-----------3-------------------*|-3-----------3--------------------|
|-----------------3-----------3---||-----------------3-----------3----|

   |       |       |       |          |       |       |       |
|-------------------------0--------|-0-----------0--------------------|
|----------------------------------|-----------------0-----------0----|
|-3-----------3--------------------|----------------------------------|
|-----------------3-----------3----|----------------------------------|

   |       |       |       |          |       |       |       |
|-------------------------7--------|-0-----------0--------------------|
|-5-----------5--------------------|-----------------0-----------0----|
|-----------------5-----------5----|----------------------------------|
|----------------------------------|----------------------------------|

   |       |       |       |          |       |       |       |
|-0-----------0-----------0---0----|-----------------2-----------2----|
|-----------------0----------------|-0-----------0--------------------|
|----------------------------------|----------------------------------|
|----------------------------------|----------------------------------|

   |       |       |       |          |       |       |       |
|-----------------2----------------||0-----------0--------------------|
|-0-----------0-----------0---0----|*----------------0-----------0----|
|----------------------------------|*---------------------------------|
|----------------------------------||---------------------------------|

   |       |       |       |          |       |       |       |
|-----------------7-----------7---||-0-----------0-------0-------2----|
|-5-----------5-------------------*|-----------------0-------2--------|
|---------------------------------*|----------------------------------|
|---------------------------------||----------------------------------|

   |       |       |       |          |       |       |       |
|-0-----------0--------------------|---------9---7--------------------|
|-----------------0-----------0----|-----------------8-------7--------|
|----------------------------------|-10------------------10------7----|
|----------------------------------|----------------------------------|

   |       |       |       |          |       |       |       |
|---------12-----------------------|-------------------------7--------|
|----------------------------------|-5-----------5--------------------|
|-10----------10-------------------|-----------------5-----------5----|
|-----------------10----------10---|----------------------------------|

   |       |       |       |          |       |       |       |
|-0---------------0-----------0----|-0-----------0---0-----------0----|
|----------------------------------|----------------------------------|
|----------------------------------|----------------------------------|
|----------------------------------|----------------------------------|

   |       |       |       |          |       |       |       |
|-0-----------0---0-----------0----|-0-----------0---0-----------0----|
|----------------------------------|----------------------------------|
|----------------------------------|----------------------------------|
|----------------------------------|----------------------------------|

   |       |       |       |          |       |       |       |
|----------------------------------|---------2---0--------------------|
|----------------------------------|-----------------1-------0--------|
|-3-----------3--------------------|-3-------------------3-------0----|
|-----------------3-----------3----|----------------------------------|

   |       |       |       |          |       |       |       |
|-----------------0-----------0----|-----------------0----------------|
|----------------------------------|----------------------------------|
|-3-----------3--------------------|-3-----------3-------3---3---3----|
|----------------------------------|----------------------------------|

   |       |       |       |          |       |       |       |
|-----------------------------7----|-----------------12--12--10-------|
|-5-----------5--------------------|-------------12--------------12---|
|-----------------5----------------|-10-------------------------------|
|----------------------------------|----------------------------------|

   |       |       |       |          |       |       |       |
|----------------------------------|-------------------------2--------|
|-0-----------0--------------------|-0-----------0--------------------|
|-----------------0-----------0----|-----------------0-----------0----|
|----------------------------------|----------------------------------|

   |       |       |       |          |       |       |       |
|-0-----------0--------------------|-----------------7-----------4----|
|-----------------0-----------0----|-5-----------5-----------8--------|
|----------------------------------|---------------------5------------|
|----------------------------------|----------------------------------|

   |       |       |       |          |       |       |       |
|----------------------------------|-----------------0-----------0----|
|----------------------------------|----------------------------------|
|-3-----------3--------------------|-3-----------3--------------------|
|-----------------3-----------3----|----------------------------------|

   |       |       |       |          |       |       |       |
|-----------------0-----------0----|-----------------0----------------|
|----------------------------------|----------------------------------|
|-3-----------3--------------------|-3-----------3-------3---0---1----|
|----------------------------------|----------------------------------|

   |       |       |       |          |       |       |       |
|----------------------------------|-----------------0----------------|
|----------------------------------|-------------------------1---2----|
|-3-----------3--------------------|-3-----------3--------------------|
|-----------------3-----------3----|---------------------3------------|

   |       |       |       |          |       |       |       |
|-----------------2-----------2----|-----------------2---------------||
|-0-----------0--------------------|-0-----------0-------0---0---0---*|
|----------------------------------|---------------------------------*|
|----------------------------------|---------------------------------||

   |       |       |       |          |       |       |       |
|-----------------7-----------7----|-0-----------0---0-----------0----|
|-5-----------5--------------------|----------------------------------|
|----------------------------------|----------------------------------|
|----------------------------------|----------------------------------|

   |       |       |       |          |       |       |       |
|-----------------0-----------0----|-----------------0----------------|
|----------------------------------|----------------------------------|
|-3-----------3--------------------|-3-----------3-----------3---3----|
|----------------------------------|----------------------------------|

   |       |       |       |          |       |       |       |
|-----------------0-----------0----|-----------------0----------------|
|----------------------------------|----------------------------------|
|-3-----------3--------------------|-3-----------3-------3---3---4----|
|----------------------------------|----------------------------------|

   |       |       |       |          |       |       |       |
|----------------------------------|----------------------------------|
|-0-----------0--------------------|-0-----------0--------------------|
|-----------------0-----------0----|-----------------0-----------0----|
|----------------------------------|----------------------------------|

   |       |       |       |          |       |       |       |
|-----------------2-----------2----|-----------------7-----------7----|
|-0-----------0--------------------|-5-----------5--------------------|
|----------------------------------|----------------------------------|
|----------------------------------|----------------------------------|

   |       |       |       |          |       |       |       |
|----------------------------------|----------------------------------|
|-0---------------0----------------|----------------------------------|
|-------------0--------------------|----------------------------------|
|----------------------------------|----------------------------------|


Created with TablEdit http://www.tabledit.com/

     
Добавлено: 07.07.2013
Другие материалы по этой песне:
  • Аккорды и текст

Страница создана 07.07.2013
http://primanota.ru/booker-t/cooldrink-chords.htm
Привет, Гость.
Предлагаем пройти революционный курс по гитаре.
Подарок от PrimaNota.Ru, забирай!