PrimaNota.ru - самый крупный в мире бесплатный архив песенных текстов, аккордов, табулатур и нот


Booker T And The Mgs - Hip Hug-her - таба, бас-таба, видео

Регистрация Запомнить меня
Войти через:  Facebook Google Twitter Vk Yandex Mail.ru

Booker T And The Mgs - Hip Hug-her - таба, бас-таба, видео

Печатать
Просмотров: 152
Авторы: Al Jackson, Jr., Steve Cropper, Donald "Duck" Dunn, Booker T. Jones

HIP HUG-HER

As recorded by Booker T. & The MG's
(From the 1967 Album HIP HUG-HER)

Words and Music by Steve Cropper, Donald "Duck" Dunn, Booker T. Jones & Al Jackson, Jr.

Transcribed by Slowhand


Gtr I (E A D G B E) - 'Steve Cropper - Electric Guitar'
Gtr II (E A D G B E) - 'Booker T. Jones - Organ'
Gtr III (E A D G B D) - 'Steve Cropper - Electric Guitar w/ slide'


  Q=116
  N.C.
 4/4
  Gtr I (El. Gtr.)
  Q  Q  S S E Q    Q.   +S       +S  +E  +Q      +E    Q  E. S e E E S S
|-6--------------|-----------------------------------|-------------------|
|----9-----------|-8----(8)b8.5==(8)r(8)-(8)b9---(8)-|-------------------|
|-------8h9p8-6--|-8----(8)b8.5==(8)r(8)-(8)b10--(8)-|-------------------|
|----------------|-----------------------------------|-------------------|
|----------------|-----------------------------------|----1--1-1---------|
|----------------|-----------------------------------|---------------1h3-|


  Q  E. S e E E S S   Q  E. S e E E S S   Q  E. S e  E   E      S S
|-------------------|-------------------|---------------------------||
|-------------------|-------------------|---------------------------||
|-------------------|-------------------|---------------------------||
|-------------------|-------------------|---------------------------||
|----1--1-1---------|----1--1-1---------|----1--1-1-----------------||
|---------------1h3-|---------------1h3-|-----------------------1h3-||
|
| Gtr II (Organ arr. for Gtr.)
| W                   W                   H       E  E  +S   E.
|-------------------|-------------------|-----------10-(10)-11------||
|-------------------|-------------------|---------------------------||
|-------------------|-------------------|---------------------------||
|-------------------|-------------------|---------------------------||
|-------------------|-------------------|---------------------------||
|-------------------|-------------------|---------------------------||


  N.C.
   Q   E. S  e E  E  S S    Q     E. S  e E  E S S    Q       E. S e E E S S
|------------------------|-------------------------|-------------------------|
|------------------------|-------------------------|-------------------------|
|------------------------|-------------------------|-------------------------|
|------------------------|-------------------------|-------------------------|
|------1--1--1-----------|--------1--1--1----------|----------1--1-1---------|
|--------------------1h3-|---------------------1h3-|---------------------1h3-|
|
|  Q   Q     Q    E  E      E  E  Q     Q    Q        E  a  E Q    H
|-13---------------------|-------------------------|-------------------------|
|-----15-----------------|-------------------------|-------------------------|
|-----------15-----------|-18-18-17----15----------|-15----------------------|
|----------------15-17---|-18-18-17----15---17-----|-15----15----------------|
|------------------------|------------------18-----|----16h17----------------|
|------------------------|-------------------------|-------------------------|


  Q  E. S e  E   E      S S    Q   E. S  e E  E  S S    Q     E. S  e E  E S S
|---------------------------|------------------------|-------------------------|
|---------------------------|------------------------|-------------------------|
|---------------------------|------------------------|-------------------------|
|---------------------------|------------------------|-------------------------|
|----1--1-1-----------------|------1--1--1-----------|--------1--1--1----------|
|-----------------------1h3-|--------------------1h3-|---------------------1h3-|
|
| H       E  E  +S   E.        Q   Q     Q    E  E      E  E  Q     Q    Q
|---------------------------|-13---------------------|-------------------------|
|-----------15-(15)-16------|-----15-----------------|-------------------------|
|---------------------------|-----------15-----------|-18-18-17----15----------|
|---------------------------|----------------15-17---|-18-18-17----15---17-----|
|---------------------------|------------------------|------------------18-----|
|---------------------------|------------------------|-------------------------|


   Q       E. S e E E S S   Q  E. S e  E   E      S S    Q   E. S  e E  E  S S
|-------------------------|---------------------------|------------------------|
|-------------------------|---------------------------|------------------------|
|-------------------------|---------------------------|------------------------|
|-------------------------|---------------------------|------1--1--1-----------|
|----------1--1-1---------|----1--1-1-------------1h3-|--------------------1h3-|
|---------------------1h3-|---------------------------|------------------------|
|
|  E  a  E Q    H           H       E  E  +S   E.        Q   Q     Q    E  E
|-------------------------|-----------15-(15)-16------|-18--15-----------------|
|-------------------------|---------------------------|-----------16-----------|
|-15----------------------|---------------------------|----------------15-17---|
|-15-15s16----------------|---------------------------|------------------------|
|----16s17----------------|---------------------------|------------------------|
|-------------------------|---------------------------|------------------------|


   Q     E. S  e E  E S S    Q       E. S e E E S S
|-------------------------|-------------------------|
|-------------------------|-------------------------|
|-------------------------|-------------------------|
|--------1--1--1----------|----------1--1-1---------|
|---------------------1h3-|---------------------1h3-|
|-------------------------|-------------------------|
|
|  E  E  Q     Q    Q        E  a  E Q    H
|-14-14-13----11----------|-11----------------------|
|-14-14-13----11---13-----|-11----11----------------|
|------------------13-----|----11h12----------------|
|-------------------------|-------------------------|
|-------------------------|-------------------------|
|-------------------------|-------------------------|


  Q  E. S e  E   E      S S
|---------------------------|
|---------------------------|
|---------------------------|
|----1--1-1-----------------|
|---------------------------|
|-----------------------1h3-|
|
| H       E  E  +S   E.
|---------------------------|
|-----------15-(15)-16------|
|---------------------------|
|---------------------------|
|---------------------------|
|---------------------------|


   Q   E. S  e E  E  S S    Q     E. S  e E  E S S    Q       E. S e E E S S
|------------------------|-------------------------|-------------------------|
|------------------------|-------------------------|-------------------------|
|------------------------|-------------------------|-------------------------|
|------------------------|-------------------------|-------------------------|
|------1--1--1-----------|--------1--1--1----------|----------1--1-1---------|
|--------------------1h3-|---------------------1h3-|---------------------1h3-|
|
|  Q   Q     Q    E  E      E  E  Q     Q    Q        E  a  E Q    H
|------------------------|-------------------------|-------------------------|
|-18--15-----------------|-------------------------|-------------------------|
|-----------15-----------|-18-18-17----15----------|-15----------------------|
|----------------15-17---|-18-18-17----15---17-----|-15----15----------------|
|------------------------|------------------18-----|----16h17----------------|
|------------------------|-------------------------|-------------------------|


                           N.C.
                                                    ~~~~~~~~~
  Q  E. S e  E   Q          H     +E      +Q        E    +W
|-----------------------||----------------------------|---------|
|-----------------------||--8-----(8)b8.5r(8)---------|---------|
|-----------------------||--8-----(8)b8.5r(8)-------6-|--(6)----|
|-----------------------||----------------------------|---------|
|----1--1-1-------------||----------------------------|---------|
|-----------------------||----------------------------|---------|
|
| H       E  E  +S   E.     H.                 +E   E    +W
|-----------------------||----------------------------|---------|
|-----------------------||-18-----------------(18)-18-|-(18)----|
|-----------19-(19)-20--||-------------------------18-|-(18)----|
|-----------------------||----------------------------|---------|
|-----------------------||----------------------------|---------|
|-----------------------||----------------------------|---------|


   Q       Q   Q   E  E    +H          +Q.    +E
|-----------------------|-------------------------|
|--------------------13-|-(13)b14=====(13)r==(13)-|
|--8b8.5---8---6-----13-|-(13)b15=====(13)r==(13)-|
|-----------------------|-------------------------|
|-----------------------|-------------------------|
|-----------------------|-------------------------|
|
|  Q       Q   Q   E  E    +W
|-17------14--14--15-13-|-(13)--------------------|
|-17------16--14--16-15-|-(15)--------------------|
|-----------------------|-------------------------|
|-----------------------|-------------------------|
|-----------------------|-------------------------|
|-----------------------|-------------------------|


  Q  E. S e E E S S   Q  E. S e E E S S
|-------------------|--------------------|
|-------------------|--------------------|
|-------------------|--------------------|
|-------------------|--------------------|
|----1--1-1---------|----1--1-1----------|
|---------------1h3-|---------------1h3--|
|
| W                   W
|-------------------|--------------------|
|-------------------|--------------------|
|-------------------|--------------------|
|-------------------|--------------------|
|-------------------|--------------------|
|-------------------|--------------------|


                                            N.C.
  Q  E. S e E E S S   Q  E. S e S S  E E    H    +E   E e S S
|-------------------|--------------------||--------------------|
|-------------------|------------------9-||-9----(9)----9------|
|-------------------|-------------9s10---||----------/8---8-8--|
|-------------------|--------------------||--------------------|
|----1--1-1---------|----1--1-1----------||--------------------|
|---------------1h3-|--------------------||--------------------|


  +E  E     +Q   +E  S +S  E S S
|--------------------------------|
|--------------------------------|
|-(8)-8b10==(8)--(8)-8r(8)-8-8-6-|
|--------------------------------|
|--------------------------------|
|--------------------------------|


                          ~~~
  +E  Q.   +E  E S E S   +H     E S  S  +E   E
|----------------------|-----------------------|
|----------------------|--------------------11-|
|-(6)-6----(6)---------|----------9s10-(10)----|
|--------------8-8-6-8-|-(8)-------------------|
|----------------------|-----------------------|
|----------------------|-----------------------|


   E.  S  +Q    +E  S  S  +S   E.
|---------------------------------|
|-11--11-(11)--(11)-----------11--|
|-------------------9s10-(10)-----|
|---------------------------------|
|---------------------------------|
|---------------------------------|


                                  ~
   E.  S  +Q   E E    +Q     S E. Q  E E    +Q
|--------------------------|---------------------|
|-11--11-(11)----8pb9r(8)--|-6---------8pb9r(8)--|
|----------------8----(8)--|-6---------8----(8)--|
|--------------------------|---8--8--------------|
|--------------------------|---------------------|
|--------------------------|---------------------|


  S E. Q  E E E E   E     +E  E S +S  +E  E E E
|-----------------|---------------------------6-|
|-6---------------|---------------------------6-|
|-----------8-8-6-|-8b10==(8)-8-8r(8)-(8)-6-----|
|---8--8----------|-------------------------8---|
|-----------------|-----------------------------|
|-----------------|-----------------------------|


          ~~~~~~~~
    E. S  Q   +E  Q  E   Q  Q  S S E Q
|--------11--(11)-9----|-6---------------|
|-/11--9---------------|----8------------|
|----------------------|-------8h9p8-6---|
|----------------------|-----------------|
|----------------------|-----------------|
|----------------------|-----------------|


                           N.C.
  W                         Q   E. S  e E  E  S S    Q     E. S  e E  E S S
|-----------------------||------------------------|-------------------------|
|-8b9-------------------||------------------------|-------------------------|
|-8b10------------------||------------------------|-------------------------|
|-----------------------||------------------------|-------------------------|
|-----------------------||------1--1--1-----------|--------1--1--1----------|
|-----------------------||--------------------1h3-|---------------------1h3-|
|
| Gtr II
| H       E  E  +S   E.     Q   Q     Q    E  E      E  E  Q     Q    Q
|-----------10-(10)-12--||-13---------------------|-------------------------|
|-----------------------||-----15-----------------|-------------------------|
|-----------------------||-----------15-----------|-18-18-17----15----------|
|-----------------------||----------------15-17---|-18-18-17----15---17-----|
|-----------------------||------------------------|------------------18-----|
|-----------------------||------------------------|-------------------------|


   Q       E. S e E E S S   Q  E. S e  E   E      S S    Q   E. S  e E  E  S S
|-------------------------|---------------------------|------------------------|
|-------------------------|---------------------------|------------------------|
|-------------------------|---------------------------|------------------------|
|-------------------------|---------------------------|------------------------|
|----------1--1-1---------|----1--1-1-----------------|------1--1--1-----------|
|---------------------1h3-|-----------------------1h3-|--------------------1h3-|
|
|  E  a  E Q    H           H       E  E  +S   E.        Q   Q     Q    E  E
|-------------------------|-----------10-(10)-11------|-13---------------------|
|-------------------------|---------------------------|-----15-----------------|
|-15----------------------|---------------------------|-----------15-----------|
|-15----15----------------|---------------------------|----------------15-17---|
|----16h17----------------|---------------------------|------------------------|
|-------------------------|---------------------------|------------------------|


   Q     E. S  e E  E S S    Q       E. S e E E S S   Q  E. S e  E   Q
|-------------------------|-------------------------|------------------------||
|-------------------------|-------------------------|------------------------||
|-------------------------|-------------------------|------------------------||
|-------------------------|-------------------------|------------------------||
|--------1--1--1----------|----------1--1-1---------|----1--1-1--------------||
|---------------------1h3-|---------------------1h3-|------------------------||
|
|  E  E  Q     Q    Q        E  a  E Q    H           H       E  E  +S   E.
|-------------------------|-------------------------|-----------10-(10)-11---||
|-------------------------|-------------------------|------------------------||
|-18-18-17----15----------|-15----------------------|------------------------||
|-18-18-17----15---17-----|-15----15----------------|------------------------||
|------------------18-----|----16h17----------------|------------------------||
|-------------------------|-------------------------|------------------------||


  N.C.
                           ~~~~~~~~~
   H     +E      +Q        E    +W
|----------------------------|-------------|
|--8-----(8)b8.5r(8)---------|-------------|
|--8-----(8)b8.5r(8)-------6-|--(6)--------|
|----------------------------|-------------|
|----------------------------|-------------|
|----------------------------|-------------|
|
|  H.                 +E   E    +W
|----------------------------|-------------|
|-18-----------------(18)-18-|-(18)--------|
|-------------------------18-|-(18)--------|
|----------------------------|-------------|
|----------------------------|-------------|
|----------------------------|-------------|


   Q       Q   Q   E  E    +H          +Q.    +E
|-----------------------|--------------------------||
|--------------------13-|-(13)b14=====(13)r==(13)--||
|--8b8.5---8---6-----13-|-(13)b15=====(13)r==(13)--||
|-----------------------|--------------------------||
|-----------------------|--------------------------||
|-----------------------|--------------------------||
|
|  Q       Q   Q   E  E    +W
|-17------14--14--15-13-|-(13)---------------------||
|-17------16--14--16-15-|-(15)---------------------||
|-----------------------|--------------------------||
|-----------------------|--------------------------||
|-----------------------|--------------------------||
|-----------------------|--------------------------||


  N.C.
  Gtr III (El. Gtr. w/ slide / Tune 1st string down to D - EADGBD)
  W          H    E  S  S  +S   S  E    E  Q.   H      H    E  E  +S   S  E
|----------|--------18s16-(16)-------|-15s16---------|--------18-(18)-------|
|----------|-------------------18s16-|-15s16---------|----------------18s16-|
|----------|-------------------------|---------------|----------------------|
|----------|-------------------------|---------------|----------------------|
|----------|-------------------------|---------------|----------------------|
|----------|-------------------------|---------------|----------------------|


                           ~~~~~~
   Q.   E  +Q   Q    E E E E +H
|------------------|----------------|
|-16s==18-(18)-----|----------------|
|------------------|---9s8-6-(6)----|
|------------------|----------------|
|------------------|----------------|
|------------------|----------------|


  H     S  S  E  +S   S  E    Q   H    Q
|------------18-(18)-------|-17s=18--------*|
|------16s18---------18s16-|-17s=18--------*|
|--------------------------|---------------*|
|--------------------------|---------------*|
|--------------------------|---------------*|
|--------------------------|---------------*|


Duration Legend
---------------
W - whole; H - half; Q - quarter; E - 8th; S - 16th; T - 32nd; X - 64th; a - acciaccatura
+ - note tied to previous; . - note dotted; .. - note double dotted
Uncapitalized letters represent notes that are staccato (1/2 duration)
Irregular groupings are notated above the duration line
Duration letters will always appear directly above the note/fret number it represents the
duration for.  Duration letters with no fret number below them represent rests.  Multi-
bar rests are notated in the form Wxn, where n is the number of bars to rest for.  Low
melody durations appear below the staff

Tablature Legend
----------------
 h   - hammer-on
 p   - pull-off
 b   - bend
 pb  - pre-bend
 r   - bend release (if no number after the r, then release immediately)
 /\  - slide into or out of (from/to "nowhere")
 s   - legato slide
 S   - shift slide
  - natural harmonic
[n]  - artificial harmonic
n(n) - tapped harmonic
 ~   - vibrato
 tr  - trill
 T   - tap
 TP  - trem. picking
 PM  - palm muting
\n/  - tremolo bar dip; n = amount to dip
 \n  - tremolo bar down
 n/  - tremolo bar up
/n\  - tremolo bar inverted dip
 =   - hold bend; also acts as connecting device for hammers/pulls
 <>  - volume swell (louder/softer)
 x   - on rhythm slash represents muted slash
 o   - on rhythm slash represents single note slash

Misc Legend
-----------
 |  - bar
||  - double bar
||o - repeat start
o|| - repeat end
*|  - double bar (ending)
 :  - bar (freetime)
 $  - Segno
 &  - Coda
Tempo markers -  = BPM(8/16=s8/s16), where s8 = swing 8ths, s16 = swing 16ths
Добавлено: 17.07.2015
Другие материалы по этой песне:

Страница создана 20.05.2012
http://primanota.ru/booker-t-and-the-mgs/hip-hug-her-chords.htm
Привет, Гость.
Предлагаем пройти революционный курс по гитаре.
Подарок от PrimaNota.Ru, забирай!