PrimaNota.ru - самый крупный в мире бесплатный архив песенных текстов, аккордов, табулатур и нот


Book Of Fears - The Water Lets You In - таба, видео

Регистрация Запомнить меня
Войти через:  Facebook Google Twitter Vk Yandex Mail.ru

Book Of Fears - The Water Lets You In - таба, видео

Печатать
Просмотров: 211
Уроки эстрадного вокала в Санкт-Петербурге
-------------------------------------------------------------------------------
                             The Water Lets You In - Book of Fears
-------------------------------------------------------------------------------
Tabbed by: MadDan
E-mail: danny4@rocketmail.com

Hey guys! This is my first tab so I'd appreciate it if you went easy on me 
because I'm sure there's mistakes, but I saw no other tab for this and I thought I got a good
chunk of the song down. If you notice any mistakes, any constructive criticism would be appreciated
and if you want to make a better version you can use this if it's any good and you want to add some changes,
if you're going to use a lot of my tab I'd appreciate the credit. Thanks for reading and let's get started...

This is MUCH better played fingerstyle!

Tuning: Standard

Intro: (D)
e|----------------------------------------------------|
B|-------3----------3-----------3----------3----------|
G|-----2---2------2---2-------2---2------2---2--------|
D|---0----------0-----------0----------0--------------|
A|----------------------------------------------------|
E|----------------------------------------------------|

Verse: (D) (Cadd9) (G)
e|----------------------------------------------------------------------------------------------------|
B|------3---------3-----------3---------3--------3---------3----------3---------3--------3---------3--|
G|----2---2-----2---2-------0---0-----0---0----0---0-----0---0------2---2-----2---2----2---2-----2---2|
D|--0---------0---------------------2----------------------------0---------0--------0---------0-------|
A|------------------------3---------------------------2-----------------------------------------------|
E|-------------------------------------------3--------------------------------------------------------|
  Young man goes out...  looking for...   diamond in...

Verse: (D) (Cadd9) (G)
e|------------------------------------------------------------------------------------|
B|------3-----------3----------3--------3---------3-----------3----------3---------3--|
G|----2---2-------0---0------0---0----0---0-----0---0-------2---2------2---2-----2---2|
D|--0---------------------2-----------------------------0----------0---------0--------|
A|-------------3-----------------------------2----------------------------------------|
E|----------------------------------3-------------------------------------------------|
        ...his boat to shore...         and falls on twisted...

Chorus: (D) (Cadd9) (G)
e|-------------------------------------------------------------------------------------|
B|------3------------3----------3--------3----------3---------3--------3-----------3---|
G|----2---2--------0---0------0---0----0---0------0---0-----2---2----2---2------2----2-| 
D|--0----------------------2----------------------------0---------0----------0---------|   
A|--------------3------------------------------2---------------------------------------|
E|----------------------------------3--------------------------------------------------|
    and you'll drown...         ...water lets you...

Chorus: (D) (Cadd9) (G)
e|-------------------------------------------------------------------------------------|
B|------3------------3----------3--------3----------3---------3--------3-----------3---|
G|----2---2--------0---0------0---0----0---0------0---0-----2---2----2---2------2----2-| 
D|--0--------------------0h2----------------------------0---------0----------0---------|   
A|--------------3----------------------------0h2---------------------------------------|
E|----------------------------------3--------------------------------------------------|
    and you'll drown...         ...water lets you...

Verse: (D) (Cadd9) (G)
e|--------------------------------------------------------------------------------------------|
B|------3---------3----------3--------3--------3----------3---------3---------3---------3-----|
G|----2---2-----0---0------0---0----0---0----0---0------2---2-----2---2-----2---2-----2---2---|
D|--0------------------2-----------------------------0---------0---------0---------0----------|
A|-----------3-----------------------------2--------------------------------------------------|
E|--------------------------------3-----------------------------------------------------------|
         ...fear the most...   ...follows me...

Verse: (D) (Cadd9) (G)
e|--------------------------------------------------------------------------------------------|
B|------3--------3--------3----------3--------3--------3----------3---------3---------3-------|
G|----2---2----2---2----0---0------0---0----0---0----0---0------2---2-----2---2-----2---2-----|
D|--0--------0----------------2-----------------------------0---------0---------0-------------|
A|------------------3------------------------------2------------------------------------------|
E|--------------------------------------3-----------------------------------------------------|
  ...all across the starry...   ...from sea to dyin' sea...

Chorus: (D) (Cadd9) (G)
e|-----------------------------------------------------------------------------------|
B|----3-----------3---------3----------3----------3----------3---------3---------3---|
G|--0---0-------0---0-----0---0------0---0------2---2------2---2-----2---2-----2---2-|
D|----------2-------------------------------0-----------0---------0---------0--------|   
A|3------------------------------2---------------------------------------------------|
E|----------------------3------------------------------------------------------------|
 drown before...    the water lets you...

Chorus: (D) (Cadd9) (G)
e|--------------------------------------------------------------------------------------------|
B|----3-----------3---------3----------3----------3----------3---------3---------3---------3--|
G|--0---0-------0---0-----0---0------0---0------4---4------4---4-----2---2-----4---4-----2---2|
D|---------0h2-------------------------------0-----------0---------0---------0---------0------|   
A|3------------------------------0h2----------------------------------------------------------|
E|----------------------3---------------------------------------------------------------------|
 ...drown...         ...water lets you in...

Verse: (D) (Cadd9) (G)
e|-----------------------------------------------------------------------------|
B|------3---------3--------3--------3----------3---------3--------3---------3--|
G|----0---0-----0---0----0---0----0---0------2---2-----2---2----2---2-----2---2|
D|-----------2---------------------------0---------0--------0---------0--------|
A|--3-------------------------2------------------------------------------------|
E|--------------------3--------------------------------------------------------|
...think...        ...wanted most was just never meant to be...


Verse: (D) (Cadd9) (G)
e|--------------------------------------------------------------------------------------------|
B|------3----------3------------3---------3--------3--------3----------3---------3--------3---|
G|----2---2------4---4--------0---0-----0---0----0---0----0---0------2---2-----2---2----2---2-|
D|--0----------0---------------------2----------------------------0---------0--------0--------|
A|------------------------3----------------------------2--------------------------------------|
E|-----------------------------------------3--------------------------------------------------|
...waves... ...ghosts..              ...their sorrows follow me...

Chorus: (D) (Cadd9) (G)
e|-------------------------------------------------------------------------------------|
B|------3------------3----------3--------3----------3---------3--------3-----------3---|
G|----2---2--------0---0------0---0----0---0------0---0-----2---2----2---2------2----2-| 
D|--0--------------------0h2----------------------------0---------0----------0---------|   
A|--------------3----------------------------0h2---------------------------------------|
E|----------------------------------3--------------------------------------------------|
    and you'll drown...         ...water lets you in...

Outro: (D) (Cadd9) (G)
e|-------------------------------------------------------------------------------------|
B|------3------------3----------3--------3----------3---------3--------3-----------3---|
G|----2---2--------0---0------0---0----0---0------0---0-----2---2----2---2------2----2-| x8
D|--0----------------------2----------------------------0---------0----------0---------|   
A|--------------3-----------------------------2----------------------------------------|
E|----------------------------------3--------------------------------------------------|
    and you'll drown...         ...water lets you in...


   (D)
e|---x-------------|
B|---x-------------|
G|---2-------------|
D|---0-------------|
A|---0-------------|
E|-----------------|

I assume there's a few mistakes in there but I hope this helps if you wanted tabs for this. 
************************************

| /   slide up
| \   slide down
| h   hammer-on
| p   pull-off
| ~   vibrato
| +   harmonic
| x   Mute note
| b   Bend
| pb  Pre-bend
| br  Bend release
| pbr Pre-bend release
| brb Bend release bend

************************************
Добавлено: 25.08.2015
Другие материалы по этой песне:
  • Аккорды и текст

Страница создана 25.08.2015
http://primanota.ru/book-of-fears/water-lets-you-in-chords.htm
Привет, Гость.
Предлагаем пройти революционный курс по гитаре.
Подарок от PrimaNota.Ru, забирай!