PrimaNota.ru - самый крупный в мире бесплатный архив песенных текстов, аккордов, табулатур и нот


Booba - Nouvelle Ecole - текст песни, таба, видео

Регистрация Запомнить меня
Войти через:  Facebook Google Twitter Vk Yandex Mail.ru

Booba - Nouvelle Ecole - текст песни, таба, видео

Печатать
Просмотров: 24
-------------------------------------------------------------------------------
                             Nouvelle école - BOOBA
-------------------------------------------------------------------------------
Tabbed by: AxllowFifty

Tuning: Normal (eBGDAE)

e|-13---11-11--10-h11--------------------------------------------------------|
B|-12---11-11---------13-13-13---15----13-----13h15--------------------------|
G|--0-0----------------0--0--0-----------------------------------------------|
D|---------------------------------------------------------------------------|
A|---------------------------------------------------------------------------|
E|---------------------------------------------------------------------------|

e|-13---11-11--10-h11------------15-----------15-15--------------------------|
B|-12---11-11---------13-13-13---------13-----13-13--------------------------|
G|---------------------------------------------------------------------------|
D|---------------------------------------------------------------------------|
A|--11-11-------------11-11-11-----------------------------------------------|
E|---------------------------------------------------------------------------|

Добавлено: 01.06.2016
Вам также может быть интересно:
Другие материалы по этой песне:
  • Аккорды и текст

Страница создана 11.07.2012
http://primanota.ru/booba/nouvelle-ecole-chords.htm
Привет, Гость.
Предлагаем пройти революционный курс по гитаре.
Подарок от PrimaNota.Ru, забирай!