PrimaNota.ru - самый крупный в мире бесплатный архив песенных текстов, аккордов, табулатур и нот


Boo Radleys - Reaching Out From Here - аккорды и текст, таба, видео

Регистрация Запомнить меня
Войти через:  Facebook Google Twitter Vk Yandex Mail.ru

Boo Radleys - Reaching Out From Here - аккорды и текст, таба, видео

Печатать
Просмотров: 198
Уроки эстрадного вокала в Санкт-Петербурге
Reaching Out From Here
Boo Radleys
		   Sent: Tuesday, January 27, 1998 10:24 AM

*************************************************************
THE BOO RADLEYS, Reaching Out From Here.
*************************************************************
Written by Martin Carr.
From the album WAKE UP!

Transcription and submission by Fabrice Dubois.
(fabrice.dubois@cnet.francetelecom.fr)
*************************************************************

Here is the way I like to play this
brilliant song. I can not guarantee
this is the real stuff, but it's OK.

First of all, you have to tune up a
half tone the thin e string, in order
to make it sound like F


____ CHORDS USED

       E  A  D  G  B (F) --(tune this string to F)

C#7M   x  3  3  1  2  0
D#*    x  6  5  0  4  0 (complete name for this chord : ?)
Fsus   x  x  3  3  1  0
F[2]   x  x  3  2  1  0
F      1  3  3  2  1  0
E5     x  x  3  2  0  0
Fm     x  3  3  1  1  0
C7     x  x  2  3  1  2 (or easier : x x x 3 1 2)


____ Intro

C#7M     D#*   C#7M     Fsus
Fsus Fsus F[2] F


____ Verse

F                  C#7M  
     It's not that I am different
     D#*               F
It's not that you have changed
               C#7M             D#*          F
This place has done its damage, it's so hard to explain
           C#7M              D#*             F
The sky it bends my back, my crooked shape remains
         C#7M  
The gravity's much stronger
    D#*              F
And nothing here has ever changed.


____ CHORUS

                    C#7M   D#*   F
And it looks like another  rainy day
             C#7M   D#*   F
Sittin' here lonely by my window
            C#7M   D#*  F
Waitin' for you to come home
            C#7M   D#*  F
Waitin' for you to come home
            C#7M   D#*  Fsus
Waitin' for you to come home


____ Verse two

F          C#7M      D#*             F
   I never wanted anything but you alone
                 C#7M  
But I miss the place that I love,
D#*              F
It's not good enough by phone
              C#7M              D#*             F
This does not feel like home my friends are far away
         C#7M           D#7            F
I get up in the morning and I wait for you all day


____ CHORUS
                    C#7M   D#*   F
And it looks like another  rainy day
             C#7M   D#*   F
Sittin' here lonely by my window
            C#7M   D#*  F
Waitin' for you to come home
            C#7M   D#*  F
Waitin' for you to come home
            C#7M   D#*  Fsus  E5(maybe?)
Waitin' for you to come home


____ Calm part

[during the "alright" words, play this soft solo]
---------------------------------------------------0-
---------------------------------------------------0-
-----1-------1-------1-------1-------1-------1-----1-
---3---3---3---3---3---3---3---3---3---3---3---3---3-
-3-------3-------2-------2-------2-------2-------2---
-----------------------------------------------------
But you think it's alright
And they think it's alright
G I guess it's alright too


____ End part

Fm             C#7M  
  But I can't stand this place
Fm             C#7M  
  I've tried so hard believe me to settle here
C7
Just to have you near...

[Loud electric solo]
------------------------------------------------------
------------------------------------------------------
--2-----8-10-8-10----5-3--5-----3-2-------------------
----3-------------------------------3-----------------
--------------------------------------3---------------
------------------------------------------------------
F       D#*          Fsus          F
                  ...whisper in my ear !

------------------------------------------------------
------------------------------------------------------
--2-----8-10-8-10----5-3-5--3-2-----------------------
----3---------------------------3---------------------
------------------------------------------------------
------------------------------------------------------

------------------------------------------------------
------------------------------------------------------
--2-----8-10-8-10----5-3-5--3-----4s6b7---------------
----3-------------------------3-----------------------
--------------------------------4---------------------
------------------------------------------------------

That it's gonna be alright
G you're gonna be alright
G I can be alright too.

*************************************************************
's' : slide
'b' : bend
*************************************************************
ANY CORRECTION IS WELCOME     
Добавлено: 15.09.2013
Другие материалы по этой песне:
  • Аккорды и текст

Страница создана 12.04.2012
http://primanota.ru/boo-radleys/reaching-out-from-here-chords.htm
Привет, Гость.
Предлагаем пройти революционный курс по гитаре.
Подарок от PrimaNota.Ru, забирай!