PrimaNota.ru - самый крупный в мире бесплатный архив песенных текстов, аккордов, табулатур и нот


Bonnie Prince Billy - A King At Night - текст песни, таба, видео

Регистрация Запомнить меня
Войти через:  Facebook Google Twitter Vk Yandex Mail.ru

Bonnie Prince Billy - A King At Night - текст песни, таба, видео

Печатать
Просмотров: 157
"A King At Night"
By Bonnie "Prince" Billy
>From the album "Ease Down the Road"
Tabbed by Jeff Lawson

Intro 
  
   D      B      D     B      D     B       A

E|------------------------------------------------|
B|-7-8--10-10---7-8--10-10---7-8--10-10-8-7-5---2-|
G|------------------------------------------------| 
D|------------------------------------------------|
A|------------------------------------------------|
E|------------------------------------------------|

Verse

  D        G       D
There is .... on my face

  D        G       D
There is crust....  eye

  G        C       G
There in no one... place

  D        G       D
But no one....    says goodbye

Chorus

     A                    D    G   D
This is how.....  in my kingdom

    D     G      D

E|-------------------|
B|-3--5--3--2--0---3-|
G|---------------2---|
D|-------------------|
A|-------------------|

2md Verse

   D         G       D
There is hate....   heart

   D         G       D
This how my....     starts 

   G         C       G
There is blood...    hands

   D         G       D
>From the murder...   man

Chorus

     A                    D    G    D
This is how.....  in my kingdom


    D     G      D

E|-------------------|
B|-3--5--3--2--0---3-|
G|---------------2---|
D|-------------------|
A|-------------------|

3rd Verse (slight change in chord progression)

   G        C        G
And where is....     queen?

   G        C        G
She's as gone....    can be

   D        G        D
She's a fine....     lady

   D        G        D
She'd like to...     on me

Chorus

     A                   D   G   D
And I'd like.... on her too

   D     G      D

E|-------------------|
B|-3--5--3--2--0---3-|
G|---------------2---|
D|-------------------|
A|-------------------|

Back to Intro

   D      B      D     B      D     B       A

E|------------------------------------------------|
B|-7-8--10-10---7-8--10-10---7-8--10-10-8-7-5---2-|
G|------------------------------------------------|  
D|------------------------------------------------|
A|------------------------------------------------|
E|------------------------------------------------|

 D      B      D     B      D        B       A

E|---------------------------------------------------|
B|-7-8--10-10--7-8--10-10--7-8--10-10-8-7-5--2---5-3-|
G|---------------------------------------------------|
D|---------------------------------------------------|
A|---------------------------------------------------|
E|---------------------------------------------------|

4th Verse

  D         G      D
And in yer?...     time

  D         G      D
On good times...   wrong

  G         C      G
And here ye....    and see

  D         G      D
All there is...    me

Chorus

     A                    D    G   D
This is how.....  in my kingdom         (Repeat)

  D     G      D

E|-------------------|
B|-3--5--3--2--0---3-|
G|---------------2---|
D|-------------------|
A|-------------------|

Bridge
  
     F#m          Gmaj

E|-2------------------------3-|
B|---2--------------------3---|
G|-----2----------------4-----|
D|-------4------------5-------|
A|---------4--------5---------|
E|-----------2---3------------|

     F#m          Gmaj            G/A

E|-2------------------------3-------5-----3-|
B|---2--------------------3----3------3-----|
G|-----2----------------4--------4------4---|
D|-------4------------5---------------------|
A|---------4--------5-----------------------|
E|-----------2---3--------------------------|

Last Verse

   D         G         D
There are good...      be had

   D         G         D
Only insane's....      bad

   G         C         G    
The Lord and....       agree

   D         G         D
It's not too....       to be

Chorus

  A                            D   G   D
What we are....  we're royalty

  A                            D   G   D
You f***ing....  kingdom too 

  D       G       D

E|---------------------|
B|-7--8--7--5--3--2--3-|
G|---------------------|
D|---------------------|
A|---------------------|

Outro

   D      B      D     B     D    

E|------------------------------|
B|-7-8--10-10---7-8--10-10----3-|
G|------------------------------|
D|------------------------------|
A|------------------------------|
E|------------------------------|

**Of course, listen to the song to capture the
rhythm**

Cheers,

Jeff L

     
Добавлено: 03.08.2013
Другие материалы по этой песне:
  • Аккорды и текст

Страница создана 05.03.2012
http://primanota.ru/bonnie-prince-billy/a-king-at-night-chords.htm
Привет, Гость.
Предлагаем пройти революционный курс по гитаре.
Подарок от PrimaNota.Ru, забирай!