PrimaNota.ru - самый крупный в мире бесплатный архив песенных текстов, аккордов, табулатур и нот


Bonnie Dobson - Time - бас-таба, видео

Регистрация Запомнить меня
Войти через:  Facebook Google Twitter Vk Yandex Mail.ru

Bonnie Dobson - Time - бас-таба, видео

Печатать
Просмотров: 10
Уроки эстрадного вокала в Санкт-Петербурге
Tabbed by: 6METAL6BASSIST6
E-mail: petergriffinav@gmail.com

Tuning: EADG

G|----------------2---------------4-------------------------------|
D|2-----------------------------------------------2---------------|
A|----------------------------------------------------------------|
E|----------------------------------------------------------------|

G|5---------------4-----------------------------------------------|
D|--------4-----------------------2-------------------------------|
A|------------------------2-----------2---------------------------|
E|----------------------------------------4---2---0---------------|

0:10

G|----------------------------------------------------------------|
D|2-------------------------------1-------------------------------|
A|----------------------------------------------------------------|
E|----------------------------------------------------------------|

G|----------------------------------------------------------------|
D|0---------------------------------------------------------------|
A|--------------------------------4-------------------------------|
E|----------------------------------------------------------------|

G|----------------------------------------------------------------|
D|----------------------------------------------------------------|
A|3-------------------------------2-------------------------------|
E|----------------------------------------------------------------|

G|----------------------------------------------------------------|
D|--------------------------------1-------2-------4---------------|
A|1---------------------------------------------------------------|
E|----------------------------------------------------------------|

0:28

G|--------------------------------------------4---4---------------|
D|2---------------2---2-------2-------------------------------4---|
A|--------------------------------2-------------------------------|
E|----------------------------------------------------------------|

G|------------------------4-------------------------------2-------|
D|----------------------------------------------------------------|
A|2-----------2---2---2-------2---0-----------0---0---0-------0---|
E|----------------------------------------------------------------|

G|------------------------5---------------------------------------|
D|--------------------------------------------------------5-------|
A|3-----------3---3---3-------3-----------------------------------|
E|--------------------------------3-----------3---3---3-------3---|

G|----------------------------------------------------------------|
D|----------------------------------------------------------------|
A|--------------------------------2-------0-------2-------2-------|
E|2-----------2---2---2-------2-----------------------------------|

G|--------------------------------|
D|--------1-------2-------4-------|
A|2-------------------------------|
E|--------------------------------|

0:48

G|----------------------------------------------------------------|
D|2-----------2---2---2---2---2---1-----------1---1---1-------1---|
A|----------------------------------------------------------------|
E|----------------------------------------------------------------|

G|----------------------------7-------------------------------7---|
D|0---------------------------------------------------------------|
A|------------5---5---5-----------5-----------5---5---5-----------|
E|----------------------------------------------------------------|

G|----------------------------4-----------------------------------|
D|--------------------------------2-----------2---2-----------2---|
A|6-----------2---2---2-------------------------------------------|
E|----------------------------------------------------------------|

G|----------------------------------------------------------------|
D|----------------------------------------------------------------|
A|0-----------0---0---0-------0---5-----------5---5---5-------5---|
E|----------------------------------------------------------------|

G|--------4-----------------------|
D|--------------------------------|
A|2---------------0-------2-------|
E|--------------------------------|

1:09

G|----------------------------------------------------------------|
D|2-----------2---2---2-------2---1-----------1---1---1-------1---|
A|----------------------------------------------------------------|
E|----------------------------------------------------------------|

G|----------------------------------------------------------------|
D|0---------------5-----------5-----------------------------------|
A|------------5-------------------5-----------5---5---5-------5---|
E|----------------------------------------------------------------|

G|----------------------------------------------------------------|
D|--------------------------------2-----------2---2---2-------2---|
A|6---------------2-----------2-----------------------------------|
E|----------------------------------------------------------------|

G|----------------------------------------------------------------|
D|----------------------------------------------------------------|
A|0-----------0---0---0-----------5-----------5---5---------------|
E|----------------------------------------------------------------|

G|------------------------4-------|
D|--------------------------------|
A|2-----------2---2---2-------2---|
E|--------------------------------|

1:28

G|----------------4---------------------------4---4---------------|
D|2-----------2---------------------------------------------------|
A|----------------------------2---2---------------------------2---|
E|----------------------------------------------------------------|

G|----4---------------------------------------2---2---------------|
D|----------------4---0-------4-----------------------2-----------|
A|2-----------2-----------2-------0-----------------------4---0---|
E|----------------------------------------------------------------|

G|------------5-------5-------------------------------------------|
D|----------------------------------------------------------------|
A|3---------------------------3-----------------------------------|
E|--------------------------------3-----------3---3---3-------3---|

G|----------------------------------------------------------------|
D|------------------------------------------------------------4---|
A|----------------------------0---2-------0-------2-------2-------|
E|2-----------2---2---2-------------------------------------------|

G|--------------------------------|
D|--------1-------2-------4-------|
A|2-------------------------------|
E|--------------------------------|

1:48

G|----------------------------------------------------------------|
D|2-----------2---2---------------1-----------1---1---------------|
A|----------------------------------------------------------------|
E|----------------------------------------------------------------|

G|----------------------------7-----------------------------------|
D|0-----------0---0---------------0-----------0---0-----------0---|
A|----------------------------------------------------------------|
E|----------------------------------------------------------------|

G|----------------------------------------------------------------|
D|1-----------1-------------------2-----------2---2-------0-------|
A|----------------2-----------------------------------------------|
E|----------------------------------------------------------------|

G|----------------------------------------------------------------|
D|----------------------------------------------------------------|
A|4-----------4---0-----------4---5-----------5-------------------|
E|----------------------------------------------------------------|

G|--------------------------------|
D|--------------------------------|
A|2---------------0-------2-------|
E|--------------------------------|

2:08

G|----------------------------------------------------------------|
D|2-----------2---2-----------2---1-----------1---1---------------|
A|----------------------------------------------------------------|
E|----------------------------------------------------------------|

G|----------------------------7-----------------------------------|
D|0---------------5-------------------------------7---------------|
A|------------5-------------------5-----------5-----------5-------|
E|----------------------------------------------------------------|

G|------------------------------------------------4---------------|
D|----------------------------1---2-----------------------2-------|
A|6---------------2-----------------------------------------------|
E|----------------------------------------------------------------|

G|----------------------------------------------------------------|
D|----------------------------------------------------------------|
A|0-----------0---0---------------1-------------------------------|
E|------------------------------------------------2-------2-------|

G|------------------------------------------------------------|
D|------------------------------------------------------------|
A|2---------------3-------------------2-----------------------|
E|------------------------------------------------------------|

G|------------------------------------------------|
D|------------------------------------------------|
A|------------------------------------------------|
E|0-----------------------------------------------|

2:33

G|------------------------------------------------------------4---|
D|2-----------2---2-----------2---1-------------------------------|
A|------------------------------------------------2---------------|
E|----------------------------------------------------------------|

G|----------------------------------------------------------------|
D|----------------------------5---5-------5-------0-----------0---|
A|--------2-------------------------------------------------------|
E|3---------------3-----------------------------------------------|

G|--------2-----------------------------------4-------------------|
D|0-----------0---1-----------1-------------------2-----------2---|
A|--------------------------------2-------------------------------|
E|----------------------------------------------------------------|

G|----------------------------------------4-----------------------|
D|2-------2---------------------------------------2---------------|
A|----------------2-----------2---2-------------------------------|
E|----------------------------------------------------------------|

G|----------------4-----------------------------------------------|
D|2-------------------------------2-----------2---1-----------2---|
A|------------2-----------2---------------------------------------|
E|----------------------------------------------------------------|

G|------------------------------------------------7---------------|
D|1-----------1---0-----------1---0-----------5-----------5-------|
A|----------------------------------------------------------------|
E|----------------------------------------------------------------|

G|------------------------2-------------------------------4-------|
D|0-----------0---0-----------0---1-------------------------------|
A|------------------------------------------------2-----------2---|
E|----------------------------------------------------------------|

G|----|
D|2---| fades out here.
A|----|
E|----|
Добавлено: 13.10.2017
Другие материалы по этой песне:
  • Аккорды и текст

Страница создана 13.10.2017
http://primanota.ru/bonnie-dobson/time-chords.htm
Привет, Гость.
Предлагаем пройти революционный курс по гитаре.
Подарок от PrimaNota.Ru, забирай!