PrimaNota.ru - самый крупный в мире бесплатный архив песенных текстов, аккордов, табулатур и нот


Bonnie Dobson - A Taste Of Honey - бас-таба, видео

Регистрация Запомнить меня
Войти через:  Facebook Google Twitter Vk Yandex Mail.ru

Bonnie Dobson - A Taste Of Honey - бас-таба, видео

Печатать
Просмотров: 8
Уроки эстрадного вокала в Санкт-Петербурге
Авторы музыки: Bobby Scott
Авторы текста: Ric Marlow
Tabbed by: 6METAL6BASSIST6
E-mail: petergriffinav@gmail.com

Tuning: EADG

0:50

G|------------------------------------------------------------------------------------------------|
D|----------------------------------------------------------------------------------------4-------|
A|2-----------------------2-----------------------2-----------------------2-----------------------|
E|------------------------------------------------------------------------------------------------|

0:58

G|------------------------------------------------------------------------------------------------|
D|------------------------------------------------2-----------------------2-----------------------| x2
A|2-----------------------2-----------------------------------------------------------------------|
E|------------------------------------------------------------------------------------------------|

G|------------------------------------------------------------------------------------------------|
D|------------------------------------------------------------------------------------------------|
A|------------------------------------------------0-----------------------0-----------------------|
E|3-----------------------3-----------------------------------------------------------------------|

G|------------------------------------------------------------------------------------------------|
D|----------------------------------------4-----------------------4-----------------------4-------|
A|2-----------------------2-----------------------2-----------------------2-----------------------|
E|------------------------------------------------------------------------------------------------|

1:27

G|------------------------------------------------------------------------------------------------|.
D|------------------------------------------------------------------------------------------------|.
A|2-----------------------2-----------------------2-----------------------2-----------------------|.
E|------------------------------------------------------------------------------------------------|.
                                                                                                   . x2
G|------------------------------------------------------------------------------------------------|.
D|0-----------------------0-----------------------2-----------------------2-----------------------|.
A|------------------------------------------------------------------------------------------------|.
E|------------------------------------------------------------------------------------------------|.

G|------------------------------------------------------------------------------------------------|
D|------------------------------------------------------------------------------------------------|
A|2-----------------------0-----------------------------------------------------------------------|
E|------------------------------------------------4-----------------------3-----------------------|

G|------------------------------------------------------------------------4-----------------------|
D|------------------------------------------------2---------------4-----------------------4-------|
A|2-----------------------0-------------------------------2---------------------------------------|
E|------------------------------------------------------------------------------------------------|

G|------------------------------------------------|
D|----------------4---------------------------4---|
A|2-----------------------2-----------------------|
E|------------------------------------------------|

2:17

G|------------------------------------------------------------------------------------------------|
D|------------------------------------------------------------------------------------------------|
A|2-----------------------2-----------------------------------------------------------------------|
E|------------------------------------------------0-----------------------0-----------------------|

G|------------------------------------------------------------------------------------------------|
D|------------------------------------------------2-----------------------2-----------------------|
A|2-----------------------2-----------------------------------------------------------------------|
E|----------------------------------------------------------------------------------------0-------|

G|------------------------------------------------------------------------------------------------|
D|------------------------------------------------------------------------------------------------|
A|------------------------------------------------0-----------------------0-----------------------|
E|3-----------------------3-----------------------------------------------------------------------|

G|------------------------4-----------------------------------------------4-----------------------|
D|----------------4-------------------4-----------------------4-----------------------4-----------|
A|2-----------------------------------------------2-----------------------------------------------|
E|------------------------------------------------------------------------------------------------|

2:48

G|------------------------------------------------------------------------------------------------|
D|--------------------------------------------------------------------4---------------------------|
A|2-----------------------2-----------------------2-----------------------2-----------------------|
E|------------------------------------------------------------------------------------------------|

G|--------------------------------------------------------------------4---------------------------|
D|0-----------------------0-----------------------2-----------------------2-----------------------|
A|------------------------------------------------------------------------------------------------|
E|------------------------------------------------------------------------------------------------|

G|------------------------------------------------------------------------------------------------|
D|------------------------------------------------------------------------------------------------|
A|2-----------------------2-----------------------2-----------------------2-----------------------|
E|------------------------------------------------------------------------------------------------|

G|--------------------------------------------------------------------4---------------------------|
D|0-----------------------0-----------------------2-----------------------2-----------------------|
A|------------------------------------------------------------------------------------------------|
E|------------------------------------------------------------------------------------------------|

G|------------------------------------------------------------------------------------------------|
D|------------------------------------------------------------------------------------------------|
A|2-----------------------0-----------------------------------------------------------------------|
E|------------------------------------------------4-----------------------3-----------------------|

G|------------------------------------------------------------------------|
D|------------------------------------------------------------------------|
A|2-----------------------0-----------------------0-----------------------|
E|------------------------------------------------------------------------|

G|------------------------------------------------4-----------------------------------------------|
D|----------------4-------------------4---------------------------4-------------------4-----------|
A|2-----------------------2-----------------------------------------------2-----------------------|
E|------------------------------------------------------------------------------------------------|

3:42

G|4-----------------------------------------------------------------------------------------------|
D|------------------------------------------------------------------------------------------------|
A|------------------------2-----------------------------------------------------------------------|
E|------------------------------------------------0-----------------------0-----------------------|

G|------------------------------------------------------------------------------------------------|
D|------------------------------------------------------------------------------------------------|
A|2-----------------------2-----------------------------------------------------------------------|
E|------------------------------------------------0-----------------------0-----------------------|

G|------------------------------------------------------------------------------------------------|
D|------------------------------------------------------------------------------------------------|
A|------------------------------------------------0-----------------------0-----------------------|
E|3-----------------------3-----------------------------------------------------------------------|

G|--------------------------------------------------------------|
D|--------------------------------------------------------------|
A|2---------------0---------------------------------------------|
E|--------------------------------4---------------3-------------|

G|--------------------------------------------------------------------------------------------|
D|--------------------------------------------------------------------------------------------|
A|--------------------------------------------------------------------------------------------|
E|--------------------------------------------------------------------------------------------|

G|------------------------------------------------------------------------------------------------|
D|------------------------------------------------------------------------------------------------|
A|2---------------0-------------------------------------------------2-----------------------------|
E|--------------------------------4---------------3-----------------------------------------------|
Добавлено: 13.10.2017
Другие материалы по этой песне:
  • Аккорды и текст

Страница создана 13.10.2017
http://primanota.ru/bonnie-dobson/taste-of-honey-chords.htm
Привет, Гость.
Предлагаем пройти революционный курс по гитаре.
Подарок от PrimaNota.Ru, забирай!