PrimaNota.ru - самый крупный в мире бесплатный архив песенных текстов, аккордов, табулатур и нот


Bonnie Dobson - Clown - бас-таба, видео

Регистрация Запомнить меня
Войти через:  Facebook Google Twitter Vk Yandex Mail.ru

Bonnie Dobson - Clown - бас-таба, видео

Печатать
Просмотров: 12
Уроки эстрадного вокала в Санкт-Петербурге
Tabbed by: 6METAL6BASSIST6
E-mail: petergriffinav@gmail.com

Tuning: EADG

G|----------------------------------------------------------------|
D|--------------------------------1-----------1---1---------------|
A|2-----------2---2-----------------------------------------------|
E|----------------------------------------------------------------|

G|----------------------------------------------------------------|
D|2-----------2---2---------------4-----------4-------4-----------|
A|----------------------------------------------------------------|
E|------------------------------------------------------------2---|

0:12

G|----------------------------------------------------------------|
D|----------------4-------------------------------4---------------|
A|4-------------------------------4-------------------------------|
E|----------------------------------------------------------------|

G|----------------------------------------------------------------|
D|--------------------------------------------4-------------------|
A|2-------1-------------------------------------------4-----------|
E|----------------4-----------4---2---------------------------2---|

G|----------------------------------------------------------------|
D|------------------------------------------------------------4---|
A|4-----------4-------------------4-------------------------------|
E|----------------2-----------2-------------------2---------------|

G|----------------------------------------------------------------|
D|--------------------------------------------4-------------------|
A|2-------1-------------------------------------------4-----------|
E|----------------4-----------4---2---------------------------2---|

0:37

G|----------------------------------------------------------------|
D|----------------------------------------------------------------|
A|------------------------------------------------4---4-----------|
E|5---5-------5---5---5-------5---4---4-------4-------------------|

G|----------------------------------------------------------------|
D|----------------1-------------------------------4-----------4---|
A|--------3---------------3-------4-----------4-------------------|
E|5---------------------------------------------------------------|

0:49

G|----------------------------------------------------------------|
D|----------------------------------------------------------------|
A|2-----------2---2---------------2-----------2---2---------------|
E|----------------------------------------------------------------|

G|----------------------------------------------------------------|
D|------------------------------------------------4---4-------4---|
A|2-----------2---2---------------4-----------4-------------------|
E|----------------------------------------------------------------|

G|----------------------------------------------------------------|
D|------------------------------------------------4---4-----------|
A|4-----------4-------------------4-----------4-------------------|
E|----------------2---2-------------------------------------------|

G|------------4-------------------|
D|--------------------4-----------|
A|2---------------------------2---|
E|--------------------------------|

1:10

G|----------------------------------------------------------------|
D|4-----------4---4-----------4---------------4---4-----------4---|
A|----------------------------------------------------------------|
E|--------------------------------2-------------------------------|

G|----------------------------------------------------------------|
D|------------4---4-----------4---------------4---4-----------4---|
A|----------------------------------------------------------------|
E|2-------------------------------2-------------------------------|

G|----------------------------------------------------------------|
D|----------------------------4---------------4---4-----------4---|
A|----------------------------------------------------------------|
E|2-------------------------------2-------------------------------|

G|----------------------------------------------------------------------|
D|----------------------------4-----------------------------------------|
A|----------------------------------------------------------------------|
E|2-------------------------------2-----------------2-------------------|

G|----------------------------------------------------------------|
D|----------------4---4-------4-------------------4---4-----------|
A|4-----------4-------------------4-----------4-------------------|
E|----------------------------------------------------------------|

1:42

G|----------------------------------------------------------------|
D|----------------4-----------------------------------------------|
A|4-----------4-------------------4-----------4-------------------|
E|------------------------------------------------2---------------|

G|----------------------------------------------------------------|
D|--------------------------------------------4-------------------|
A|2-------1-------------------------------------------4-----------|
E|----------------4-----------4---2---------------------------2---|

G|----------------------------------------------------------------|
D|----------------4-------------------------------4---------------|
A|4-----------4-------------------4-----------4-------------------|
E|----------------------------------------------------------------|

G|----------------------------------------------------------------|
D|--------------------------------------------4-------------------|
A|2-------1-------------------------------------------4-----------|
E|----------------4-----------4---2---------------------------2---|

2:06

G|----------------------------------------------------------------|
D|----------------------------------------------------------------|
A|----------------------------------------------------------------|
E|5---5-------5---5---5-------5---4---4-------4---4---4-------4---|

G|----------------------------------------------------------------|
D|----------------1---1---------------------------4---4-----------|
A|----3---3---3-----------3---3---4-----------4-------------------|
E|----------------------------------------------------------------|

2:18

G|----------------------------------------------------------------|
D|----------------------------------------------------------------|
A|2-----------2---2---------------2-----------2---2---------------|
E|----------------------------------------------------------------|

G|----------------------------------------------------------------|
D|------------------------------------------------4---4-------4---|
A|2-----------2---2-----------2---4-----------4-------------------|
E|----------------------------------------------------------------|

G|------------------------------------------------|
D|----------------4---4-------4-------------------|
A|4-----------4-------------------4-----------4---|
E|------------------------------------------------|

G|----------------------------------------|
D|4---------------------------------------|
A|----------------------------------------|
E|----------------------------------------|

2:39

G|----------------------------------------------------------------|
D|----------------------------------------------------------------|
A|2-----------2---2---------------2-----------2---2---------------|
E|----------------------------------------------------------------|

G|----------------------------------------------------------------|
D|------------------------------------------------4---4-------4---|
A|2-----------2---2-----------2---4-----------4-------------------|
E|----------------------------------------------------------------|

G|----------------------------------------------------------------|
D|----------------4---4-------4-------------------4---4-------4---|
A|4-----------4-------------------4-----------4-------------------|
E|----------------------------------------------------------------|

G|------------4---|
D|----------------| fades out here.
A|2---------------|
E|----------------|
Добавлено: 13.10.2017
Другие материалы по этой песне:
  • Аккорды и текст

Страница создана 13.10.2017
http://primanota.ru/bonnie-dobson/clown-chords.htm
Привет, Гость.
Предлагаем пройти революционный курс по гитаре.
Подарок от PrimaNota.Ru, забирай!