PrimaNota.ru - самый крупный в мире бесплатный архив песенных текстов, аккордов, табулатур и нот


Бонинем - Words - аккорды и текст, таба, видео

Регистрация Запомнить меня
Войти через:  Facebook Google Twitter Vk Yandex Mail.ru

Бонинем - Words - аккорды и текст, таба, видео

Печатать
Просмотров: 171
Words
Бонинем
Intro
Gtr 1 and Gtr 2

­­­___ a way ____ Words ...

E|--------------------------------------|
B|--------------------------------------|
G|--------------------------------------|
D|----------------------------------5---|
A|-----5-5-5-5-5-5-5-5-5-5-5-5-5----3---|
E|--------------------------------------|

E|--------------------------------------------|
B|--------------------------------------------|
G|--------------------------------------------|
D|--5--5----------------------------5----5--5-|
A|--3--7-5-5-5-5-5-5-5-5-5-5-5-5----3----3--7-|
E|--------------------------------------------|
p.m. . . . . . . . . . . . . . . . . . . . . . . . . .

Gtr 1 and Gtr 2

___ don't come easy ___ to me ___
E|-------------------------------------------------------------------------|
B|-------------------------------------------------------------------------|
G|-------------------------------------------------------------------------|
D|----------------------------------------5-5-5-5-5-5-5-5------------------|
A|-----5-5-5-5-5-5--4-4--2-2-2-2-2-2-2-2-------------------4-4-4-4-4-4-4-4-|
E|-------------------------------------------------------------------------|
p.m. . . . . . . . . . . . . . . . . . . . . . . . . . . . . . . . .

Gtr 1 and Gtr 2

___ This is the only way ___ ___ For me to say " I love you " Words don't
E|-------------------------------------------------------------------------|
B|-------------------------------------------------------------------------|
G|-------------------------------------------------------------------------|
D|------7-7-7-7-7-7-7-7----------------------------------------------------|
A|-----------------------6-6-6-6-6-6-6-6--7-7-7-7-7-7-7-7--0-0-0-0-0-0-0-0-|
E|-------------------------------------------------------------------------|
p.m. . . . . . . . . . . . . . . . . . . . . . . . . . . . . . . . .

Gtr 1 and Gtr 2

_____ come easy
E|--------------------------------------|
B|--------------------------------------|
G|--------------------------------------|
D|------------------7-7-7-7-7-----------|
A|------5-5-5-5-5-5-5-5-5-5-5-----5---7-|
E|--------------------------------3---5-|
p.m. . . . . . .

Riff A

Gtr 1 and Gtr 2

­­­­_____ Words don't come easy to me
E|---------------------------------------------------------------------|
B|---------------------------------------------------------------------|
G|------------------------------------7-----7-----7--------------------|
D|-------7-----7------6----4-----4----5-5-5-5-5-5-5-5--6-----6-----6---|
A|-------5-5-5-5-5-5--4-4--2-2-2-2-2-------------------4-4-4-4-4-4-4-4-|
E|---------------------------------------------------------------------|
|p.m. . . . . . . . . . . . . . . . . . . |
| |
Keyboards |
E|-------------0------2-----------------------3-----2------0-|
B|-------------------------3---------------------------------|
G|-----------------------------------------------------------|
D|-----------------------------------------------------------|
A|-----------------------------------------------------------|
E|-----------------------------------------------------------|

Gtr 1 and Gtr 2

__ This is the only way For me to say " I love you " Words don't come easy
E|------------------------------------------------|
B|------------------------------------------------|
G|----9-(9)---------------------------------------|
D|----7-(7)-----8-----8-----8----9-----9-----9----|
A|--------------6-6-6-6-6-6-6-6--7-7-7-7-7-7-7-7--|
E|------------------------------------------------|

E|------------------------------------------|
B|------------------------------------------|
G|------------------------------------------|
D|-2-----2-----2----7-----7-----7---7-------|
A|-0-0-0-0-0-0-0-0--5-5-5-5-5-5-5-5-5-5-5-5-|
E|------------------------------------------|
|p.m. . . . . . . . . . . . . . . . . . . . . . . . |
| |
Keyboards |
E|-------------------------------------3-----2-----0-|
B|---------------------------------------------------|
G|---------------------------------------------------|
D|---------------------------------------------------|
A|---------------------------------------------------|
E|---------------------------------------------------|

Gtr 1 and Gtr 2
E|----------------|
B|----------------|
G|----------------|
D|----------------|
A|---------5----7-|
E|---------3----5-|
| |
Keyboards |
E|---|
B|---|
G|---|
D|---|
A|---|
E|---|

Riff B

Gtr 1 and Gtr 2

____ Well, I'm just a music man ___ Melodies of all my best friend __
E|---------------------------------------------------------------------------|
B|---------------------------------------------------------------------------|
G|---------------------------------------------------------------------------|
D|-----------------------7-----7-----7/9--------------------7-----------7--6-|
A|-----7-----7-----7-----5-555-5-555-5/7--7-----7-----7-----5-5-5-5-5---5--4-|
E|-----5-555-5-555-5-55-------------------5-555-5-555-5-55-------------------|
p.m. ... ... .. ... ... ... ... .. . . . .

Gtr 1 and Gtr 2

But my words are coming along and I _ I reveal my heart to you and hope that
E|-------------------------------------------------------------------|
B|-------------------------------------------------------------------|
G|-----------------------6------6--6---7------7-----7/9--7-----7--7\-|
D|-----4------4-----4/---4---4--4--4---5---5--5--5--5/7--5--5--5--5\-|
A|-----2---2--2--2--2/-----------------------------------------------|
E|-------------------------------------------------------------------|
p.m. . . . . . .

Gtr 1 and Gtr 2

___you believe ___ its true
E|----------------------------------------|
B|----------------------------------------|
G|-----------------5-7----------------7-9-|
D|-----------5-7-8-------------7-9-10-----|
A|-----5-7-8------------7-9-10------------|
E|----------------------------------------|
p.m. . . . . . . . . . . . . . . . .

Riff C

Gtr 1 and Gtr 2

­­­­___But Words don't come easy to me
E|---------------------------------------------------------------------|
B|---------------------------------------------------------------------|
G|------------------------------------7-----7-----6--------------------|
D|-------7-----7------6----4-----4----5-5-5-5-5-5-4-4--6-----6-----6---|
A|-------5-5-5-5-5-5--4-4--2-2-2-2-2-------------------4-4-4-4-4-4-4-4-|
E|---------------------------------------------------------------------|
|p.m. . . . . . . . . . . . . . . . . . . |
| |
Keyboards |
E|-------------0------2-----------------------3-----2------0-|
B|-------------------------3---------------------------------|
G|-----------------------------------------------------------|
D|-----------------------------------------------------------|
A|-----------------------------------------------------------|
E|-----------------------------------------------------------|

Gtr 1 and Gtr 2
__ How can I find a way to make you see I love you Words don't come easy
E|------------------------------------------------|
B|------------------------------------------------|
G|----9-(9)-9-------------------------------------|
D|----7-(7)-6---8-----8-----8----9-----9-----9----|
A|--------------6-6-6-6-6-6-6-6--7-7-7-7-7-7-7-7--|
E|------------------------------------------------|

E|------------------------------------------|
B|------------------------------------------|
G|------------------------------------------|
D|-2-----2-----2----7-----7-----7---7-------|
A|-0-0-0-0-0-0-0-0--5-5-5-5-5-5-5-5-5-5-5-5-|
E|------------------------------------------|
|p.m. . . . . . . . . . . . . . . . . . . . . . . . |
| |
Keyboards |
E|-------------------------------------3-----2-----0-|
B|---------------------------------------------------|
G|---------------------------------------------------|
D|---------------------------------------------------|
A|---------------------------------------------------|
E|---------------------------------------------------|

Gtr 1 and Gtr 2

____ This is
E|----------------|
B|----------------|
G|----------------|
D|----------------|
A|---------5----7-|
E|---------3----5-|
| |
Keyboards |
E|---|
B|---|
G|---|
D|---|
A|---|
E|---|

Riff B

Gtr 1 and Gtr 2

____ just a simple song ___ That I make for you on my own __
E|---------------------------------------------------------------------------|
B|---------------------------------------------------------------------------|
G|---------------------------------------------------------------------------|
D|-----------------------7-----7-----7/9--------------------7-----------7--6-|
A|-----7-----7-----7-----5-555-5-555-5/7--7-----7-----7-----5-5-5-5-5---5--4-|
E|-----5-555-5-555-5-55-------------------5-555-5-555-5-55-------------------|
p.m. ... ... .. ... ... ... ... .. . . . .

Gtr 1 and Gtr 2

There's no hidden meaning You know when
I When I say "I love you, honey" This believe
E|-------------------------------------------------------------------|
B|-------------------------------------------------------------------|
G|-----------------------6------6--6---7------7-----7/9--7-----7--7\-|
D|-----4------4-----4/---4---4--4--4---5---5--5--5--5/7--5--5--5--5\-|
A|-----2---2--2--2--2/-----------------------------------------------|
E|-------------------------------------------------------------------|
p.m. . . . . . .

Gtr 1 and Gtr 2

___ are really do
E|----------------------------------------|
B|----------------------------------------|
G|-----------------5-7----------------7-9-|
D|-----------5-7-8-------------7-9-10-----|
A|-----5-7-8------------7-9-10------------|
E|----------------------------------------|
p.m. . . . . . . . . . . . . . . . .

Riff D

Gtr 1

__Words, words don't come easy ...
E|----------------------------------|------------------------|
B|--------------------------------|------------------------|
G|----------------------------------| x 32 times, I think...-|
D|----------------------------------|------------------------|
A|------7-------------------------|------------------------|
E|-------5-55-----------------------|------------------------|
|p.m. .. |
| |
Gtr 2 (lead) |
E|-------------|
B|-------------|
G|-----------?-|
D|-------------|
A|-------------|
E|-------------|

Riff C x 1 (????? ? Riff B)

Solo

Gtr 1

____ come easy ___easy come easy __
E|----------------------------------------------10-(10)~---10-9-7-------------|
B|--/3-(3)~-----6-6fb--5-(5)~---5-(5)~---8--10--------------------------------|
G|-----------------------------------------------------------------7h9p7-(7)~-|
D|----------------------------------------------------------------------------|
A|----------------------------------------------------------------------------|
E|----------------------------------------------------------------------------|
| |
Gtr 2 |
E|---|
B|---|
G|---|
D|---|
A|---|
E|---|

Gtr 1

­­­____ Words don't come easy __
E|---------------------------------9halfb\-|
B|--------------------------------10fullb\-|
G|------/11--9--7---9fbp7-(7)~-------------|
D|-----------------------------------------|
A|-----------------------------------------|
E|-----------------------------------------|
| |
Gtr 2 |
E|---|
B|---|
G|---|
D|---|
A|---|
E|---|

Riff C x 2 (words with Riff B and Riff C)

Riff E

Gtr 1 and Gtr 2

come easy don't come easy to me This is the
E|-----------------------------------------------------------------------|
B|----------------------------------------------------------------------|
G|------------------------------------7-----7-----6----------------------|
D|-------7-----7-----6-----4-----4----5-555-5-555-4-44--6-----6-----6----|
A|------5-555-5-55--4-44--2-222-2-22-------------------4-444-4-444-4-44-|
E|-----------------------------------------------------------------------|
p.m. ... .. .. ... .. ... ... .. ... ... ..

Gtr 1 and Gtr 2

only way For me to say " I love you " Words don't come easy x2
E|-----------------------------------------------------------------|
B|----------------------------------------------------------------|
G|-9-(9)--9--------------------------------------------------------| fading
D|-7-(7)--6--8-----8-----8-----9-----9-----9-----2-----2-----2-----| out...
A|-----------6-666-6-666-6-66--7-777-7-777-7-77--0-000-0-000-0-00-|
E|-----------------------------------------------------------------|
p.m. ... ... .. ... ... .. ... ... ..

End.
Добавлено: 13.11.2013
Другие материалы по этой песне:
  • Аккорды и текст

Страница создана 13.11.2013
http://primanota.ru/boninem/words-chords.htm
Привет, Гость.
Предлагаем пройти революционный курс по гитаре.
Подарок от PrimaNota.Ru, забирай!