PrimaNota.ru - самый крупный в мире бесплатный архив песенных текстов, аккордов, табулатур и нот


Бонинем - We Are The World We Are The Children - аккорды и текст, таба, видео

Регистрация Запомнить меня
Войти через:  Facebook Google Twitter Vk Yandex Mail.ru

Бонинем - We Are The World We Are The Children - аккорды и текст, таба, видео

Печатать
Просмотров: 206
We Are The World We Are The Children
Бонинем
Tuning D
 
Intro
Gtr 1
E|-----------------------------------------------------------------------------|
B|-----------------------------------------------------------------------------|
G|-----------------------------------------------------------------------------|
D|---5-(5)----------------5-(5)------------------5-(5)---------------5\--2-(2)-|
A|---3-(3)--3-(3)--5-(5)--3-(3)----3-(3)--5-(5)--3-(3)---------------3\--0-(0)-|
E|----------1-(1)--3-(3)-----------1-(1)--3-(3)--------------------------------|
| |
| |
Gtr 2 |
E|----------------------------------------------------------------------------|
B|----------------------------------------------------------------------------|
G|----------------------------------------------------------------------------|
D|-5-(5)-------------5-(5)-------5-(5)-------------5-(5)-------5-(5)-5\-2-(2)-|
A|-3-(3)-3-(3)-5-(5)-3-(3)-3-3-3-3-(3)-3-(3)-5-(5)-3-(3)-3-3-3-3-(3)-3\-0-(0)-|
E|-------1-(1)-3-(3)-------------------1-(1)-3-(3)----------------------------|
p.m. . . . . . .

Gtr 1 and Gtr 2
E|---------------------------------------------------------------------------|
B|---------------------------------------------------------------------------|
G|---------------------------------------------------------------------------|
D|---------------------------------------------------------5-----5-----4/5-5-|
A|--2-(2)---2-----2-(2)--3-----3-----3----5-----5-----5----3-3-3-3-3-3-2/3-3-|
E|--0-(0)---0-0-0-0-(0)--1-1-1-1-1-1-1-1--3-3-3-3-3-3-3-3--------------------|
p.m. . . . . . . . . . . . . . . . .

Verse

Gtr 1 and Gtr 2
E|-----------------------------------------------------------------------|
B|-----------------------------------------------------------------------|
G|-----------------------------------------------------------------------|
D|--------------------------------------5-----5----------5-----5---------|
A|----3-----3-----3----5-----5-----5----3-3-3-3-3-3-3-3--3-3-3-3-3-3-3-3-|
E|----1-1-1-1-1-1-1-1--3-3-3-3-3-3-3-3-----------------------------------|
p.m. . . . . . . . . . . . . . . . . . . . . . .

Gtr 1 and Gtr 2
E|-----------------------------------------------------------------------|
B|-----------------------------------------------------------------------|
G|-----------------------------------------------------------------------|
D|--------------------------------------5-----5----------5---------------|
A|----3-----3-----3----5-----5-----5----3-3-3-3-3-3-3-3--3-3-3-000500030-|
E|----1-1-1-1-1-1-1-1--3-3-3-3-3-3-3-3-----------------------------------|
p.m. . . . . . . . . . . . . . . . . . . .........

Chorus

Gtr 1 and Gtr 2
E|-----------------------------------------------|
B|-----------------------------------------------|
G|-----------------------------------------------|
D|-----------------------------------------------|
A|-----7-(7)--7-----7-7-(7)-----5-(5)--5-----5-5-|
E|-----5-(5)--5-5-5-5-5-(5)-----3-(3)--3-3-3-3-3-|
p.m. . . . .

Gtr 1 and Gtr 2
E|----------------------------------------------------------|
B|----------------------------------------------------------|
G|----------------------------------------------------------|
D|----------------------------------------5-----5-----4/5-5-|
A|------3-----3-----3----5-----5-----5----3-3-3-3-3-3-2/3-3-|
E|------1-1-1-1-1-1-1-1--3-3-3-3-3-3-3-3--------------------|
p.m. . . . . . . . . . . . . . .
Добавлено: 20.11.2013
Другие материалы по этой песне:
  • Аккорды и текст

Страница создана 20.11.2013
http://primanota.ru/boninem/we-are-the-world-we-are-the-children-chords.htm
Привет, Гость.
Предлагаем пройти революционный курс по гитаре.
Подарок от PrimaNota.Ru, забирай!