PrimaNota.ru - самый крупный в мире бесплатный архив песенных текстов, аккордов, табулатур и нот


Бонинем - Symphony - аккорды и текст, видео

Регистрация Запомнить меня
Войти через:  Facebook Google Twitter Vk Yandex Mail.ru

Бонинем - Symphony - аккорды и текст, видео

Печатать
Просмотров: 143
Уроки эстрадного вокала в Санкт-Петербурге
Symphony
Бонинем
Tuning D

Intro

Gtr 1
E|------------------------------------------------------|
B|------------------------------------------------------|
G|------------------------------------------------------|
D|------------------------4-(4)-------------------4-(4)-|
A|-----/-\--3-(3)---------2-(2)---------3-(3)-----2-(2)-|
E|-----/-\--1-(1)-----------------------1-(1)-----------|
| |
Gtr 2 (wah-wah + tremolo bar vibrato) |
E|-----------------------------------------------------------------|
B|------------------------A.H.-------------------A.H.--------------|
G|----------3~~~~~~-------4fb~~~~~~~----3~~~~~~~--4~~~~~~~~(4)/\/\-|
D|-----------------------------------------------------------------|
A|-----------------------------------------------------------------|
E|-----------------------------------------------------------------|

Gtr 1
E|---|
B|---|
G|---|
D|---|
A|---|
E|---|
| |
Gtr 2 (wah-wah) .............. |
E|------------------------------------/------------\--|
B|-------11fbr-(11)p9--------------12fb---12--12-12---12r-|
G|-------(slow bend)----10~~~-----------------------------|
D|--------------------------------------------------------|
A|--------------------------------------------------------|
E|--------------------------------------------------------|

 - A.H.

Riff A

Gtr 1 and Gtr 2
E|------------|----------------------------|
B|------------|----------------------------|
G|------------|----------------------------|
D|------------|-----3-(3)/4\3----3-(3)/4\3-|
A|-----3-(3)--|-----1-(1)/2\1----1-(1)/2\1-|
E|-----1-(1)--|----------------------------|

Riff B

Gtr 1
E|----------------------------------------------|
B|----------------------------------------------|
G|----------------------------------------------|
D|------3---------------3-----------------------|
A|------1-------3-------1---------3-----------3-|
E|--------------1-----------------1-----------1-|
| |
| |
Gtr 2 (with wah-wah) |
E|-----------+-------------+-------------+-------------+----------------------|
B|-7-7-7~--6-6~--4-4-4~--2-2~--4-4-4~--2-2~--1-1-1~--------8fb~--7-5-7-9fb-8~-|
G|---------------------------------------------------3-3~---------------------|
D|----------------------------------------------------------------------------|
A|----------------------------------------------------------------------------|
E|----------------------------------------------------------------------------|

«+» - press pedal

Chorus

Gtr 1 Sym _ pho _ ny Sym _ pho _ ny
E|--------------------------------------------------|
B|--------------------------------------------------|
G|--------------------------------------------------|
D|------3----3----3-(3)-----3----3----3-(3)--3----3-|
A|------1----1----1-(1)-----1----1----1-(1)--1----1-|
E|--------------------------------------------------|
| |
| |
Gtr 2 (wah-wah) |
E|----------------------------------------------------|
B|----------------------------------------------------|
G|----------------------------------------------------|
D|----------------------------------------------------|
A|----1-1-1-1-1-1-1-1-1-1-1-1-1-1-1-1-1-1-1-1-1-1-1-1-|
E|----------------------------------------------------|

both Gtrs Sym _ pho _ ny Sym _ pho _ ny

E|---------------------------------------------------------------------|
B|---------------------------------------------------------------------|
G|---------------------------------------------------------------------|
D|----------6---------6------------6---6---6----8-(8)---10-(10)---6--8-|
A|----------4-4-4-4-4-4-4--4-4-4-4-4-4-4-4-4----6-(6)----8-(8)----4--6-|
E|---------------------------------------------------------------------|

End.
Добавлено: 13.08.2013
Другие материалы по этой песне:
  • Аккорды и текст

Страница создана 13.08.2013
http://primanota.ru/boninem/symphony-chords.htm
Привет, Гость.
Предлагаем пройти революционный курс по гитаре.
Подарок от PrimaNota.Ru, забирай!