PrimaNota.ru - самый крупный в мире бесплатный архив песенных текстов, аккордов, табулатур и нот


Бонинем - I Just Called To Say I Love You - аккорды и текст, таба, видео

Регистрация Запомнить меня
Войти через:  Facebook Google Twitter Vk Yandex Mail.ru

Бонинем - I Just Called To Say I Love You - аккорды и текст, таба, видео

Печатать
Просмотров: 213
I Just Called To Say I Love You
Бонинем
Tuning E

Riff A
Intro (acoustic)
Gtr 1 x4
E|---10-------14------------10-------14------------|
B|-----11-------15----15------11-------15----15---|
G|---------9--------14------------9--------14------|
D|-------------------------------------------------|
A|------------------------------------------------|
E|-------------------------------------------------|

E|-9-------12-----------9-------12------------|
B|---10-------13----13----10-------13----13--|
G|------7--------12----------7--------12------|
D|--------------------------------------------|
A|-------------------------------------------|
E|--------------------------------------------|

Gtr 1
E|--10-------14----|
B|-----11-------15-|
G|--------9--------|
D|-----------------|
A|-----------------|
E|-----------------|

Riff B

Gtr 1 x4
E|----0----------------------2-------------------------|
B|---1-----------3--------3---3-------3--------------|
G|----2--------------2-----------2--------2------------|
D|----2----------------4---------------------4---------|
A|---0-------2---------------------2-----------------|
E|----0------------------------------------------------|

Riff C
Verse 1 x2
E|----0----|------------------2------------------------------|
B|----1----|------3--------3---3-------3-------------------|
G|----2----|----------2-----------2--------2--------2--------|
D|----2----|------------4---------------------4-------4------|
A|----0----|--2---------------------2------------------2---|
E|----0----|-------------------------------------2-----------|

Gtr 1 x7
E|------------------2--------------------2--------|----------------0-----------|
B|-------3--------3---3-------3------------3------|-----------------0--------|
G|----------2-----------2--------2-----------2----|-------0------------0-------|
D|------------4---------------------4----------4--|---------2------------2-----|
A|---2---------------------2----------------------|----------2---------------|
E|------------------------------------------------|----0-----------------------|

Gtr 1
E|-------------2---------------------2-----------------2--3--2-|
B|------3--------3----------3----------3--------3------3--5--3-|
G|--------2--------2----------2----------2--------2------------|
D|----------0--------0----------0----------0--------0----------|
A|---0-------------------0-------------------0-----------------|
E|-------------------------------------------------------------|

Verse 1
No New Year's Day to celebrate
No chocolate covered candy hearts to give away
No first of spring, no song to sing
In fact here's just another ordinary day

Repeat Riff C
Verse 2
No April rain, no flowers bloom;
No wedding Saturday within the month of June
But what it is, is something true
Made up of these three words that I must say to you

Riff D

Chorus

I just called to say I love you
E|---0-0-0-0-0-0--0-0-0-0-0-0--3-3-3-4-4-3-3-3------------0-|
B|---0-0-0-0-0-0--2-2-2-2-2-2--2-2-2-2-2-2-2-2----------0---|
G|---0-0-0-0-0-0--2-2-2-2-2-2--3-3-3-3-3-3-3-3--------0-----|
D|---2-2---2---2-2---2---0-0--0-0-0-0-0------2-------|
A|---2-------2----0-------0----0-------------2---------|
E|---0-------0----0-------0---------------------0-----------|

 - hit from below

I just called to say how much I care
I just called to say I love you x2
E|---0-0-0-0-0-0----0-0-0-0-0-0----2-2-2-2-2-2-2-2-2-2-------|
B|--0-0-0-0-0-0----2-2-2-2-2-2----3-3-3-3-3-3-3-3-3-3------|
G|---0-0-0-0-0-0----2-2-2-2-2-2----2-2-2-2-2-2-2-2-2-2-------|
D|---2-2---2------2-2---2-----4-4---4---4---------|
A|--2-------2------0-------0------5------------------------|
E|---0-------0------0-------0------2-------------------------|

And I mean it from the bottom of my heart
E|---0-0-0-0-0-0--0-0-0-0-0-0--3-3-4-3-3-3-|
B|---0-0-0-0-0-0--2-2-2-2-2-2--2-2-2-2-2-2-|
G|---0-0-0-0-0-0--2-2-2-2-2-2--3-3-3-3-3-3-|
D|---2-2---2---2-2---2---0-0---0-0-|
A|---2-------2----0-------0----0----------|
E|---0-------0----0-------0----------------|

Ending of Solo rhythm

(during the solo guitar 1 play Riff ?, but the ending is a little different
and all the rest is just the same)

Gtr 1
E|-------------2---------------------2------------------2---------|
B|------3--------3----------3----------3--------3---------3-------|
G|--------2--------2----------2----------2--------2---------2-----|
D|----------0--------0----------0----------0--------0---------0---|
A|---0-------------------0-------------------0------------------0-|
E|----------------------------------------------------------------|

Solo 1
Gtr 2
E|---------------------------------------------------------------------------|
B|---------------------------------------------------------------------------|
G|---------------------------------------------------------------------------|
D|-/9-11-12-12-(12)~--9-11---12-12-(12)~--9-11---12-12--11-12/14/16-16\14-12-|
A|---------------------------------------------------------------------------|
E|---------------------------------------------------------------------------|

Gtr 2
E|------------------------A.H.------------------------------------------------|
B|------------------------12-(12)~--------------------------------------------|
G|------------------------------------6-8---9-9-(9)~--9/11--9-8~---5-8~--4-7~-|
D|--9h11p9-9-(9)~-------------------------------------------------------------|
A|----------------------------------------------------------------------------|
E|----------------------------------------------------------------------------|

Gtr 2 /.........\
E|--------------------------------------------------/----10~\---\--|
B|---5---------------------------------------------/-------------\-|
G|-----7-6~----4-6---7-7-(7)~---6-7/9/11--9-7-6-6fb(7)~--------r---|
D|-----------------------------------------------------------------|
A|-----------------------------------------------------------------|
E|-----------------------------------------------------------------|

Repeat Riff C
Verse 3
No Libra sun, no Halloween
No giving thanks to all the Christmas joy you bring
But what it is, though old so new
To fill your heart like no three words could ever do

Riff D

Chorus

I just called to say I love you
I just called to say how much I care
Ugh, ugh, ugh
I just called to say I love you
And I mean it from the bottom of my heart

(during the solo, guitar 1 play Riff D)

Solo 2
E|---------------------------------------------------------------------------|
B|---------------------------------------------------------------------------|
G|-----------------------------------------A.H.------------------------------|
D|---/12-12--9-(9)~---/12-11-(11)~---9-11~--12~----/12-12--9-(9)~-----12-11~-|
A|---------------------------------------------------------------------------|
E|---------------------------------------------------------------------------|

E|--------------------------------------------------------------------|
B|--------------------------------------------------------------------|
G|--------------------------A.H.-------------------------------A.H.---|
D|---7-4--2-4hbr(4)~---4-444-4fbr------------/12-12-9(9)~--12-11(11)~-|
A|--------------------------------5-2(2)~-----------------------------|
E|--------------------------------------------------------------------|
p.m. ...

hbr - half bend + release

Gtr 2
E|------------------------------------------------------------------|
B|------------------------------------------------------------------|
G|----------------------------------------------A.H.----------------|
D|-----/8-9-11-9-12fbr-12~\---/12-12-9---7-5fbr-5fbr~---------A.H.--|
A|--------------------------------------------------------2-4-5(5)~-|
E|------------------------------------------------------------------|
p.m. . . .

Ending

Gtr 1
E|-----0----2-|
B|-----2----3-|
G|-----2----2-|
D|-----2----0-|
A|-----0----0-|
E|-----0----0-|
Добавлено: 09.11.2013
Другие материалы по этой песне:
  • Аккорды и текст

Страница создана 09.11.2013
http://primanota.ru/boninem/i-just-called-to-say-i-love-you-chords.htm
Привет, Гость.
Предлагаем пройти революционный курс по гитаре.
Подарок от PrimaNota.Ru, забирай!