PrimaNota.ru - самый крупный в мире бесплатный архив песенных текстов, аккордов, табулатур и нот


Бонинем - Felicita - аккорды и текст, таба, видео

Регистрация Запомнить меня
Войти через:  Facebook Google Twitter Vk Yandex Mail.ru

Бонинем - Felicita - аккорды и текст, таба, видео

Печатать
Просмотров: 171
Felicita
Бонинем
Intro
 
Riff 1

Gtr1 and Gtr2

E||--------------------------|
B||-----------------|
G||----7-6-5---7-6-5---7-6-5-|
D||----5-4-3---5-4-3---5-4-3-|
A||--------------------------|
E||--------------------------|
( - during the song, guitar1 plays lower notes, guitar2 - upper)

Riff 1a

Gtr1 and Gtr2 x7
E||-------------------------------------------------------|
B||--------------------------------------------------|
G||---------5------------5------------5--------/7-6-5-----|
D||---------5------------5------------5--------/5-4-3-----|
A||--3-3-3-3-3-3--3-3-3-3-3-3--3-3-3-3-3-3--------------|
E||-------------------------------------------------------|

E|-----------------------------------|
B|-----------------------------------|
G|---------5------------5--------12~-|
D|---------5------------5------------|
A|---3-3-3-3-3-3--3-3-3-3-3-3--------|
E|--------------------------------3~-|

p.m. . . . . . . . . . . . . . . . . . . . . . . . . .

Verse

Riff 2

Gtr1 and Gtr2 x2
E||---------------------------------------------------|
B||--------------------------------------------------|
G||----------5------------5------------5------------5-|
D||----------5------------5------------5------------5-|
A||---3-3-3-3-3-3--3-3-3-3-3-3--3-3-3-3-3-3--3-3-3-3-|
E||---------------------------------------------------|
p.m. . . . . . . . . . . . . . . . . . .

Gtr1 and Gtr2 x2

E||---------------------------------------------------|
B||--------------------------------------------------|
G||----------7------------7------------7------------7-|
D||----------7------------7------------7------------7-|
A||---5-5-5-5-5-5--5-5-5-5-5-5--5-5-5-5-5-5--5-5-5-5-|
E||---------------------------------------------------|
Добавлено: 14.01.2014
Другие материалы по этой песне:
  • Аккорды и текст

Страница создана 14.01.2014
http://primanota.ru/boninem/felicita-chords.htm
Привет, Гость.
Предлагаем пройти революционный курс по гитаре.
Подарок от PrimaNota.Ru, забирай!