PrimaNota.ru - самый крупный в мире бесплатный архив песенных текстов, аккордов, табулатур и нот


Bongzilla - Weedy Woman - таба, видео

Регистрация Запомнить меня
Войти через:  Facebook Google Twitter Vk Yandex Mail.ru

Bongzilla - Weedy Woman - таба, видео

Печатать
Просмотров: 144
Bongzilla - Weedy Woman
Amerijuanican (2005)
Tabbed By ruker
Tuned Down 3 Steps BEADF#B

-------------
Key:
-------------
. Palm Mute
~ Vibrato
h Hammer-On
p Pull-Off
/ Slide Up
\ Slide Down
-------------



                                                 _________
Intro (0:05)                                    |1,2    3x| 
||----------------------------------------------|---------||
||*---------------------------------------------|--------*||
||----------------------------------------------|---------||
||-----------9-8----8--8------------------------|---------||
||*-8--8--8--7-6----6--6--10-9-8--8--6-8-6-8--8-|-3-6-6--*||
||--6--6--6---------------8--7-6--6--4-6-4-6--6-|-1-4-4---||



Riff A (0:47) 
  ___________________
 |3                                                      2x
||---------------------------------------------------------||
||*-------------------------------------------------------*||
||---------------------------------------------------------||
||---------------------------------------------------------||
||*----------4-6--4-6-4-7-6-4------------4-6--7-6-4-------*||
||--1--4--6-------------------6-1--4--6-------------6-4-6--||



Fill (1:04)   2x
||--------------||
||*------------*||
||--------------||
||--------------||
||*------------*||
||--4h6--4h6----||



Riff B (1:08)                                                  5x
||---------------------------------------------------------------||
||*-------------------------------------------------------------*||
||---------------------------------------------------------------||
||--------------------------------------------------9-8----------||
||*-6-8--6-8--8--8--6-8--6-8--8--8--6-8--6-8--8--8--7-6--109-8--*||
||--4-6--4-6--6--6--4-6--4-6--6--6--4-6--4-6--6--6-------8-7-6---||
                                                         .


Chorus (1:48)                                      4x 
||---------------------------------------------------||
||*-------------------------------------------------*||
||---------------------------------------------------||
||---------------------------------------------------||
||*-----------------------4--6--7--6--4-------------*||
||--4h6--4h6----4h6--4h6-----------------6--4--6-----||



Fill (2:19)   3x
||--------------||
||*------------*||
||--------------||
||--------------||
||*------------*||
||--4h6--4h6----||



Riff B (2:26)                                                  5x
||---------------------------------------------------------------||
||*-------------------------------------------------------------*||
||---------------------------------------------------------------||
||--------------------------------------------------9-8----------||
||*-6-8--6-8--8--8--6-8--6-8--8--8--6-8--6-8--8--8--7-6--109-8--*||
||--4-6--4-6--6--6--4-6--4-6--6--6--4-6--4-6--6--6-------8-7-6---||
                                                         .


Riff C (3:04)                                           4x
||--------------------------------------------------------||
||*------------------------------------------------------*||
||--------------------------------------------------------||
||--------------------------------------9--8--------------||
||*-8-8-8--6-6--8-8-8--6-6--8-8-8--6-6--7--6--10--9-8-6--*||
||--6-6-6--4-4--6-6-6--4-4--6-6-6--4-4--------8---7-6-4---||



Riff D (3:36)                                           3x
||--------------------------------------------------------||
||*------------------------------------------------------*||
||--------------------------------------------------------||
||--------------------------------------9--8--------------||
||*-8-8-6--8-6--8-8-6--8-6--8-8-6--8-6--7--6--10--9-8-6--*||
||--6-6-4--6-4--6-6-4--6-4--6-6-4--6-4--------8---7-6-4---||



Outro (4:09)
||------------------------------||
||------------------------------||
||------------------------------||
||------------------------------||
||--8---8----6~~~~~~~/----(14)--||
||--6---6----4~~~~~~~/----(12)--||
Добавлено: 06.12.2013
Другие материалы по этой песне:
  • Аккорды и текст

Страница создана 06.12.2013
http://primanota.ru/bongzilla/weedy-woman-chords.htm
Привет, Гость.
Предлагаем пройти революционный курс по гитаре.
Подарок от PrimaNota.Ru, забирай!