PrimaNota.ru - самый крупный в мире бесплатный архив песенных текстов, аккордов, табулатур и нот


Bongzilla - Trinity (Gigglebush) - текст песни, таба, видео

Регистрация Запомнить меня
Войти через:  Facebook Google Twitter Vk Yandex Mail.ru

Bongzilla - Trinity (Gigglebush) - текст песни, таба, видео

Печатать
Просмотров: 126
Bongzilla - Trinity (Gigglebush)
Gateway (2002)
Tabbed By ruker (Varuker@gmail.com)
Tuned Down 2.5 Step BEADF#B

-------------
Key:
-------------
. Palm Mute
~ Vibrato
h Hammer-On
p Pull-Off
b Bend
r Release
\ Slide Up
/ Slide Down
-------------



Intro (0:07) 
  Bass Only
||-------------------------------------------------------------||
||-------------------------------------------------------------||
||--8-6---6-------8-6---6-------8-6---6------------6-8br-6-----||
||------8----8-6------8----8-6------8----8-6---6-8---------8---||



Riff A (0:14)                                               3x
||-------------------------------------------------------------||
||*-----------------------------------------------------------*||
||-------------------------------------------------------------||
||-------------------------------------------------------------||
||*-8-6---6-------8-6---6-------8-6---6------------6-8br-6----*||
||------8----8-6------8----8-6------8----8-6---6-8---------8---||



Riff B (0:44)                                             2x
||----------------------------------------------------------||
||*--------------------------------------------------------*||
||----------------------------------------------------------||
||--10---8----10-8----8-------------10---8----10-8----------||
||*-8----6----8--6-10-6--10-8/10\8--8----6----8--6-10-8----*||
||-----------------8-----8--6/8-\6-----------------8--6-----||



Riff A (1:00)                                                2x
||-------------------------------------------------------------||
||*-----------------------------------------------------------*||
||-------------------------------------------------------------||
||-------------------------------------------------------------||
||*-8-6---6-------8-6---6-------8-6---6------------6-8br-6----*||
||------8----8-6------8----8-6------8----8-6---6-8---------8---||



Fill A (1:15) 
||-----------||
||-----------||
||-----------||
||-10---8----||
||-8----6----||
||-----------||



Riff A (1:18)                                                2x
||-------------------------------------------------------------||
||*-----------------------------------------------------------*||
||-------------------------------------------------------------||
||-------------------------------------------------------------||
||*-8-6---6-------8-6---6-------8-6---6------------6-8br-6----*||
||------8----8-6------8----8-6------8----8-6---6-8---------8---||



Riff B (1:33)                                             2x
||----------------------------------------------------------||
||*--------------------------------------------------------*||
||----------------------------------------------------------||
||--10---8----10-8----8-------------10---8----10-8----------||
||*-8----6----8--6-10-6--10-8/10\8--8----6----8--6-10-8----*||
||-----------------8-----8--6/8-\6-----------------8--6-----||


                     ______________________   _____________________
Riff C (1:50)       |1,2,3               4x| |4                    |
||------------------|----------------------|||---------------------||
||*-----------------|---------------------*|||---------------------||
||------------------|----------------------|||---------------------||
||------------------|----------------------|||---------------------||
||*-8/10-10-8/10-10-|-8/10-10-4-6-4-------*|||-8/10-10-4-6-4-------||
||--6/8--8--6/8--8--|-6/8--8--------4-6-4--|||-6/8--8--------4-6-4-||
                                                       . . . . . .


Fill B (2:07)
||-------------------------------------||
||-------------------------------------||
||-------------------------------------||
||-------------------------------------||
||-4-6-4-------4-6-4-------4-6-4-------||
||-------4-6-4-------4-6-4-------4-6-4-||
   . . . . . . . . . . . . . . . . . .

                     ______________________   _____________________
Riff C (2:10)       |1,2,3               4x| |4                    |
||------------------|----------------------|||---------------------||
||*-----------------|---------------------*|||---------------------||
||------------------|----------------------|||---------------------||
||------------------|----------------------|||---------------------||
||*-8/10-10-8/10-10-|-8/10-10-4-6-4-------*|||-8/10-10-4-6-4-------||
||--6/8--8--6/8--8--|-6/8--8--------4-6-4--|||-6/8--8--------4-6-4-||
                                                       . . . . . .


Fill B (2:27)
||-------------------------------------||
||-------------------------------------||
||-------------------------------------||
||-------------------------------------||
||-4-6-4-------4-6-4-------4-6-4-------||
||-------4-6-4-------4-6-4-------4-6-4-||
   . . . . . . . . . . . . . . . . . .

                     ______________________   _____________________
Riff C (2:30)       |1,2,3               4x| |4                    |
||------------------|----------------------|||---------------------||
||*-----------------|---------------------*|||---------------------||
||------------------|----------------------|||---------------------||
||------------------|----------------------|||---------------------||
||*-8/10-10-8/10-10-|-8/10-10-4-6-4-------*|||-8/10-10-4-6-4-------||
||--6/8--8--6/8--8--|-6/8--8--------4-6-4--|||-6/8--8--------4-6-4-||
                                                       . . . . . .


Fill B (2:46)                      ~22x
||-------------------------------------||
||-------------------------------------||
||-------------------------------------||
||-------------------------------------||
||-4-6-4-------4-6-4-------4-6-4-------||
||-------4-6-4-------4-6-4-------4-6-4-||
   . . . . . . . . . . . . . . . . . .


Riff D (4:05)                    3x
||---------------------------------||
||*-------------------------------*||
||---------------------------------||
||--------------------------10-8---||
||*-8/10-10-8/10-10-8/10-10-8--6--*||
||--6/8--8--6/8--8--6/8--8---------||



Outro (4:18)
||------------------------------------------------------------------------------||
||------------------------------------------------------------------------------||
||------------------------------------------------------------------------------||
||------------------------------------------------------------------------------||
||-8/10-10-8/10-10-8/10-10-4-6-4-------4-6-4-------4-6-4-------4-6-4-------10---||
||-6/8--8--6/8--8--6/8--8--------4-6-4-------4-6-4-------4-6-4-------4-6-4-8----||
                           . . . . . . . . . . . . . . . . . . . . . . . . 
Добавлено: 11.06.2013
Другие материалы по этой песне:
  • Аккорды и текст

Страница создана 15.06.2012
http://primanota.ru/bongzilla/trinity-gigglebush-chords.htm
Привет, Гость.
Предлагаем пройти революционный курс по гитаре.
Подарок от PrimaNota.Ru, забирай!