PrimaNota.ru - самый крупный в мире бесплатный архив песенных текстов, аккордов, табулатур и нот


Bongzilla - Stone A Pig - текст песни, таба, видео

Регистрация Запомнить меня
Войти через:  Facebook Google Twitter Vk Yandex Mail.ru

Bongzilla - Stone A Pig - текст песни, таба, видео

Печатать
Просмотров: 175
Bongzilla - Stone A Pig
Gateway (2002)
Tabbed By ruker (Varuker@gmail.com)
Tuned Down 2.5 Step BEADF#B

-------------
Key:
-------------
. Palm Mute
~ Vibrato
h Hammer-On
p Pull-Off
b Bend
r Release
/ Slide Up
\ Slide Down
-------------



Intro (0:08)              2x
||--------------------------||
||*------------------------*||
||--------------------------||
||--------------------------||
||*-3--1--3--4--3--1-------*||
||--------------------3-----||



Riff A (0:33)                  4x
||------------------------------||
||*----------------------------*||
||------------------------------||
||--5--3--5--6--5--3------------||
||*-3--1--3--4--3--1--5-5-5-5--*||
||--------------------3-3-3-3---||



Fill A (1:16) 
  Bass & Drums Only                                             2x
||----------------------------------------------------------------||
||*--------------------------------------------------------------*||
||*-----1-1-----3-3-----1------1h2h3-3--3--1--1------------------*||
||--3-3-----3-3-----3-3----3-3-------------------3--3-3-3-3-3-3---||



Riff B (1:33)                                                   2x
||----------------------------------------------------------------||
||*--------------------------------------------------------------*||
||----------------------------------------------------------------||
||------3-3-----5-5-----3------------5--5--3--3-------------------||
||*-5-5-1-1-5-5-3-3-5-5-1--5---1h2h3-3--3--1--1--5--5-5-5-5-5-5--*||
||--3-3-----3-3-----3-3----3-3-------------------3--3-3-3-3-3-3---||
                             .


Riff C (1:50) 6x
||--------------------------------------------------||
||*------------------------------------------------*||
||--------------------------------------------------||
||--5--5--3-3-3--5--5--6-6-5-3-6--5--5--3-3-3-------||
||*-3--3--1-1-1--3--3--4-4-3-1-4--3--3--1-1-1--5---*||
||---------------------------------------------3----||



Fill B (2:39)
  Bass & Drums Only                               2x
||--------------------------------------------------||
||*------------------------------------------------*||
||*-3--3--6-----3--3--6--------3--3--6--------6-5--*||
||-----------3-----------6-3-6----------3--3--------||



Chorus (3:12) 8x
||---------------------------------------------------------|
||*--------------------------------------------------------|
||---------------------------------------------------------|
||--5--5-3-5--5-3-8\7/8---3----5--5-3-5--5-3-8\7/8---------|
||*-3--3-1-3--3-1-6\5/6-5-1----3--3-1-3--3-1-6\5/6-5--5-5--|
||----------------------3--------------------------3--3-3--|


|-----------------------------------||
|----------------------------------*||
|-----------------------------------||
|-5--5-3-5--5-3-8\7/8---3----8--7---||
|-3--3-1-3--3-1-6\5/6-5-1----6--5--*||
|---------------------3-------------||



Fill B (4:14)
  Bass & Drums Only                               2x
||--------------------------------------------------||
||*------------------------------------------------*||
||*-3--3--6-----3--3--6--------3--3--6--------6-5--*||
||-----------3-----------6-3-6----------3--3--------||



Chorus (4:47) 
||---------------------------------------------------------|
||*--------------------------------------------------------|
||---------------------------------------------------------|
||--5--5-3-5--5-3-8\7/8---3----5--5-3-5--5-3-8\7/8---------|
||*-3--3-1-3--3-1-6\5/6-5-1----3--3-1-3--3-1-6\5/6-5--5-5--|
||----------------------3--------------------------3--3-3--|

                                  8x
|-----------------------------------||
|----------------------------------*||
|-----------------------------------||
|-5--5-3-5--5-3-8\7/8---3----8--7---||
|-3--3-1-3--3-1-6\5/6-5-1----6--5--*||
|---------------------3-------------||



Fill D (6:37) ~22x
||----------------||
||*--------------*||
||----------------||
||----------------||
||*--------------*||
||--6~-6~--8~-----||



Riff D (7:51)                 14x
||-------------------------------||
||*-----------------------------*||
||-------------------------------||
||-------------------------------||
||*-8--8--10-10-8-10-10-8-10-10-*||
||--6--6--8--8--6-8--8--6-8--8---||



Outro (9:14)              2x
||--------------------------||
||*------------------------*||
||--------------------------||
||--------------------------||
||*------------------------*||
||--6~-6~--8~--8~---8~-8~---||
Добавлено: 12.11.2013
Другие материалы по этой песне:
  • Аккорды и текст

Страница создана 10.06.2012
http://primanota.ru/bongzilla/stone-a-pig-chords.htm
Привет, Гость.
Предлагаем пройти революционный курс по гитаре.
Подарок от PrimaNota.Ru, забирай!