PrimaNota.ru - самый крупный в мире бесплатный архив песенных текстов, аккордов, табулатур и нот


Bongzilla - Keefmaster - текст песни, таба, видео

Регистрация Запомнить меня
Войти через:  Facebook Google Twitter Vk Yandex Mail.ru

Bongzilla - Keefmaster - текст песни, таба, видео

Печатать
Просмотров: 179
Уроки эстрадного вокала в Санкт-Петербурге
Bongzilla - Keefmaster
Gateway (2002)
Tabbed By ruker (Varuker@gmail.com)
Tuned Down 2.5 Step BEADF#B

-------------
Key:
-------------
. Palm Mute
~ Vibrato
h Hammer-On
p Pull-Off
b Bend
r Release
/ Slide Up
\ Slide Down
-------------



Intro (0:05)
||----------------------------------------------------||
||----------------------------------------------------||
||----------------------------------------------------||
||----------------------------------------------------||
||-4--6-6----\4--6-6--6~~--4--6-6--6b--r-4--6-6--6~~--||
||-2--4-4----\2--4-4--4~~--2--4-4--4b--r-2--4-4--4~~--||



Riff A (0:20)                                        4x
||-----------------------------------------------------||
||*---------------------------------------------------*||
||-----------------------------------------------------||
||-----------------------------------------------------||
||*-4--6-6--6--6--4--6-6--4--6-6--6--6--4--6-6--9--8--*||
||--2--4-4--4--4--2--4-4--2--4-4--4--4--2--4-4--7--6---||



Intro (0:48)
||----------------------------------------------------||
||----------------------------------------------------||
||----------------------------------------------------||
||----------------------------------------------------||
||-4--6-6---\-4--6-6--6~~--4--6-6--6b--r-4--6-6--6~~--||
||-2--4-4---\-2--4-4--4~~--2--4-4--4b--r-2--4-4--4~~--||



Riff A (1:04)                                        4x
||-----------------------------------------------------||
||*---------------------------------------------------*||
||-----------------------------------------------------||
||-----------------------------------------------------||
||*-4--6-6--6--6--4--6-6--4--6-6--6--6--4--6-6--9--8--*||
||--2--4-4--4--4--2--4-4--2--4-4--4--4--2--4-4--7--6---||



Intro (1:31)
||----------------------------------------------------||
||----------------------------------------------------||
||----------------------------------------------------||
||----------------------------------------------------||
||-4--6-6---\-4--6-6--6~~--4--6-6--6b--r-4--6-6--6~~--||
||-2--4-4---\-2--4-4--4~~--2--4-4--4b--r-2--4-4--4~~--||



Fill A (1:47)                4x
||-----------------------------||
||*---------------------------*||
||-----------------------------||
||-----------------------------||
||*-4--6-6--9---8---4--6-6----*||
||--2--4-4--7---6---2--4-4-----||



Riff B (2:03)                           4x
||----------------------------------------||
||*--------------------------------------*||
||----------------------------------------||
||----------------------------------------||
||*-4--6-6--9---8---4--6-6--4-4--6-6--6--*||
||--2--4-4--7---6---2--4-4--2-2--4-4--4---||



Fill B (2:18)     3x
||------------------||
||*----------------*||
||------------------||
||------------------||
||*-4--6-6--9--8---*||
||--2--4-4--7--6----||



Riff C (2:23)
||-----------------------------------------|
||-----------------------------------------|
||-----------------------------------------|
||-----------------------------------------|
||-4-4--6-6--4-4--6-6--4-4--6-6--9-9--8-8--|
||-2-2--4-4--2-2--4-4--2-2--4-4--7-7--6-6--|
   . .  . .  . .  . .  . .  . .  . .  . .

|---------------------------------------------------|
|*-------------------------------------------------*|
|---------------------------------------------------|
|---------------------------------------------------|
|*-4-4-6-6-6-6-4-4-6-6-6-6-4-4-6-6-6-6-9-9-9-8-8-8-*|
|--2-2-4-4-4-4-2-2-4-4-4-4-2-2-4-4-4-4-7-7-7-6-6-6--|
   . . . . . . . . . . . . . . . . . . . . . . . .

|-----------------------------------------||
|-----------------------------------------||
|-----------------------------------------||
|-----------------------------------------||
|-4-4--6-6--4-4--6-6--4-4--6-6--9-9--8-8--||
|-2-2--4-4--2-2--4-4--2-2--4-4--7-7--6-6--||
  . .  . .  . .  . .  . .  . .  . .  . .


Riff D (2:40)    3x          2x                3x
||-----------------|-----------|-----------------||
||*---------------*|*---------*|*---------------*||
||-----------------|-----------|-----------------||
||-----------------|-----------|-----------------||
||*-4--6-6--9--8--*|*-4--6-6--*|*-4--6-6--9--8--*||
||--2--4-4--7--6---|--2--4-4---|--2--4-4--7--6---||



Chorus (2:54)                                         8x
||------------------------------------------------------||
||*----------------------------------------------------*||
||------------------------------------------------------||
||------------------------------------------------------||
||*-4--6-6--6--4--6-6--6--4--6-6--6--6--2-4-5-4-2------*||
||--2--4-4--4--2--4-4--4--2--4-4--4--4------------4-2---||



Intro Slower (3:56)
||----------------------------------------------------||
||----------------------------------------------------||
||----------------------------------------------------||
||----------------------------------------------------||
||-4--6-6----\4--6-6--6~~--4--6-6--6b--r-4--6-6--6~~--||
||-2--4-4----\2--4-4--4~~--2--4-4--4b--r-2--4-4--4~~--||



Outro (4:15)
||------------------||
||------------------||
||------------------||
||------------------||
||-4-/-6-6--6~------||
||-2-/-4-4--4~------||
Добавлено: 07.08.2013
Другие материалы по этой песне:
  • Аккорды и текст

Страница создана 26.02.2012
http://primanota.ru/bongzilla/keefmaster-chords.htm
Привет, Гость.
Предлагаем пройти революционный курс по гитаре.
Подарок от PrimaNota.Ru, забирай!