PrimaNota.ru - самый крупный в мире бесплатный архив песенных текстов, аккордов, табулатур и нот


Bongzilla - High Like A Dog - таба, видео

Регистрация Запомнить меня
Войти через:  Facebook Google Twitter Vk Yandex Mail.ru

Bongzilla - High Like A Dog - таба, видео

Печатать
Просмотров: 120
Bongzilla - High Like A Dog
Methods For Attaining Extreme Altitudes EP (1998)
Tabbed By ruker (Varuker@gmail.com)
Tuned Down 2.5 Steps BEADF#B

-------------
Key
-------------
. Palm Mute
~ Vibrato
h Hammer-On
p Pull-Off
b Bend
r Release
/ Slide Up
\ Slide Down
-------------



Intro (0:05)
||-------------------------------------------------||
||-------------------------------------------------||
||-5~------5~------5~------5~-------------8--7--5--||
||----7-------7-------7-------7--5--7--5-----------||
||-------------------------------------------------||
||-------------------------------------------------||
                                          ^band joins


Riff A (0:17)                                      3x
||---------------------------------------------------||
||*-------------------------------------------------*||
||--5-------5-------5-------5--------------8--7--5---||
||-----7-------7-------7-------7--5--7--5------------||
||*-3-------3-------3-------3--------------6--5--3--*||
||-----5-------5-------5-------5--3--5--3------------||


                                         _________   ___________
Riff B (0:57)                           |1,2,3  4x| |4          |
||--------------------------------------|---------|||-----------||
||*-------------------------------------|--------*|||-----------||
||--------------------------------------|---------|||-----------||
||--------------------------------------|---------|||-----------||
||*-5--7----5--7----5--7----5--7--5--6--|--5--3--*|||-5---3-----||
||--3--5----3--5----3--5----3--5--3--4--|--3--1---|||-3---1-----||



Riff C (1:36)                               6x
||--------------------------------------------||
||*------------------------------------------*||
||--------------------------------------------||
||--------------------------------------------||
||*-10-9--7------5--7--5----6--5--3----3-----*||
||--8--7--5------3--5--3----4--3--1----1------||



Riff A (2:28)                                      3x
||---------------------------------------------------||
||*-------------------------------------------------*||
||--5-------5-------5-------5--------------8--7--5---||
||-----7-------7-------7-------7--5--7--5------------||
||*-3-------3-------3-------3--------------6--5--3--*||
||-----5-------5-------5-------5--3--5--3------------||


                                         _________   ___________
Riff B (3:08)                           |1,2,3  4x| |4          |
||--------------------------------------|---------|||-----------||
||*-------------------------------------|--------*|||-----------||
||--------------------------------------|---------|||-----------||
||--------------------------------------|---------|||-----------||
||*-5--7----5--7----5--7----5--7--5--6--|--5--3--*|||-5---3-----||
||--3--5----3--5----3--5----3--5--3--4--|--3--1---|||-3---1-----||



Riff C (3:45)                               8x
||--------------------------------------------||
||*------------------------------------------*||
||--------------------------------------------||
||--------------------------------------------||
||*-10-9--7------5--7--5----6--5--3----3-----*||
||--8--7--5------3--5--3----4--3--1----1------||



Outro (4:51)
||----------------------||
||----------------------||
||----------------------||
||----------------------||
||-10--9----7-----------||
||-8---7----5-----------||
Добавлено: 27.06.2013
Другие материалы по этой песне:
  • Аккорды и текст

Страница создана 27.06.2013
http://primanota.ru/bongzilla/high-like-a-dog-chords.htm
Привет, Гость.
Предлагаем пройти революционный курс по гитаре.
Подарок от PrimaNota.Ru, забирай!