PrimaNota.ru - самый крупный в мире бесплатный архив песенных текстов, аккордов, табулатур и нот


Bongzilla - Hashdealer - текст песни, таба, видео

Регистрация Запомнить меня
Войти через:  Facebook Google Twitter Vk Yandex Mail.ru

Bongzilla - Hashdealer - текст песни, таба, видео

Печатать
Просмотров: 156
Bongzilla - Hashdealer
Gateway (2002)
Tabbed By ruker (Varuker@gmail.com)
Tuned Down 2.5 Step BEADF#B

-------------
Key:
-------------
. Palm Mute
~ Vibrato
h Hammer-On
p Pull-Off
b Bend
r Release
/ Slide Up
\ Slide Down
-------------

                          
Riff A (0:20)                                  3x
||-----------------------------------------------||
||*---------------------------------------------*||
||-----------------------------------------------||
||-----4--7--------------------------------------||
||*-2--2--5--7--5--7--5--2----5--7--22----7--8--*||
||--0--------5--6--5--3--0----3--5--00----5--6---||
                                    .


Riff B (1:05)                       8x
||-----------------------------------||
||*---------------------------------*||
||-----------------------------------||
||-----4-7---------------------------||
||*-2--2-5--7-8--7-5-2--5-7-2--7-8--*||
||--0-------5-6--5-3-0--3-5-0--5-6---||



Fill A (1:38)
  Guitar
||-------------------------------------------------------------||
||-------------------------------------------------------------||
||-----------------REST----------------------------------------||
||-------------------------------------------------------------||
||---------------------------------------8--8-8-8-8-7--7-7-7-7-||
||---------------------------------------6--6-6-6-6-5--5-5-5-5-||
|                                                               |
| Bass                                                          |
||-------------------------------------------------------------||
||-------------------------------------------------------------||
||-------------------------------------------------------------||
||-0--0-0-5--3--0--0-5-3-5--0--0-0-5--3--6--6-6-6-6-5--5-5-5-5-||



Riff C (1:46)                                                  5x
||---------------------------------------------------------------||
||*-------------------------------------------------------------*||
||---------------------------------------------------------------||
||---------------------------------------------------------------||
||*-2--2-2-7--5--2--2-7-5-7--2--2-2-7--5--4--4-4-4-4-7--7-7-7-7-*||
||--0--0-0-5--3--0--0-5-3-5--0--0-0-5--3--6--6-6-6-6-5--5-5-5-5--||



Riff D (2:24)               12x
||-----------------------------||
||*---------------------------*||
||-----------------------------||
||--5--------------------------||
||*-3--6--5-2--5--7--------7--*||
||-----4--3-0--3--5--3h5p3-5---||
            .


Riff E (3:07)              6x
||---------------------------||
||*-------------------------*||
||---------------------------||
||--5------------------------||
||*-3----7----5-5-6--5-5-6--*||
||-------5----3-3-4--3-3-4---||



Outro (4:13)
||----------------------||
||----------------------||
||----------------------||
||--5~------------------||
||--3~-----7------------||
||---------5------------||
Добавлено: 27.10.2013
Другие материалы по этой песне:
  • Аккорды и текст

Страница создана 22.07.2012
http://primanota.ru/bongzilla/hashdealer-chords.htm
Привет, Гость.
Предлагаем пройти революционный курс по гитаре.
Подарок от PrimaNota.Ru, забирай!