PrimaNota.ru - самый крупный в мире бесплатный архив песенных текстов, аккордов, табулатур и нот


Bongzilla - Cutdown - таба, видео

Регистрация Запомнить меня
Войти через:  Facebook Google Twitter Vk Yandex Mail.ru

Bongzilla - Cutdown - таба, видео

Печатать
Просмотров: 108
Bongzilla - Cutdown
Amerijuanican (2005)
Tabbed By ruker
Tuned Down 3 Steps BEADF#B

-------------
Key:
-------------
. Palm Mute
~ Vibrato
h Hammer-On
p Pull-Off
/ Slide Up
\ Slide Down
-------------


                                                            ___________
Intro (0:01)                                               |1,2,3    4x|
||---------------------------------------------------------|-----------||
||*--------------------------------------------------------|----------*||
||---------------------------------------------------------|-----------||
||---------------------------------------------------------|-----------||
||*-5--2--5-2--5--2--5-2-----------2--5--2--5-2--5--2--5-2-|-------2--*||
||------------------------5--2--5--------------------------|-2--5------||


Riff A (0:35)
  ________________
 |4                                     5x 
||----------------------------------------||
||*--------------------------------------*||
||----------------------------------------||
||----------------------------------------||
||*-4--7--12--9----9\7-7/9----9\7-7/9----*||
||--2--5--10--7----7\5-5/7----7\5-5/7-----||



Fill A (1:28)               
  Guitar                        4x
||--------------------------------||
||*-----------!REST!-------------*||
||--------------------------------||
||--------Drums-&-Bass-Only-------||
||*------------------------------*||
||--------------------------------||
|                                  |
| Bass                             |
||--------------------------------||
||*------------------------------*||
||*------------------------------*||
||--2--5--10--7----5--7---5--7----||



Riff A (2:11)                           5x
||----------------------------------------||
||*--------------------------------------*||
||----------------------------------------||
||----------------------------------------||
||*-4--7--12--9----9\7-7/9----9\7-7/9----*||
||--2--5--10--7----7\5-5/7----7\5-5/7-----||



Fill A (3:04)               
  Guitar                        4x
||--------------------------------||
||*-----------!REST!-------------*||
||--------------------------------||
||--------Drums-&-Bass-Only-------||
||*------------------------------*||
||--------------------------------||
|                                  |
| Bass                             |
||--------------------------------||
||*------------------------------*||
||*------------------------------*||
||--2--5--10--7----5--7---5--7----||



Riff A (3:47)                           5x
||----------------------------------------||
||*--------------------------------------*||
||----------------------------------------||
||----------------------------------------||
||*-4--7--12--9----9\7-7/9----9\7-7/9----*||
||--2--5--10--7----7\5-5/7----7\5-5/7-----||



Fill B (4:39)               
  Guitar                               2x
||---------------------------------------||
||*--------------!REST!-----------------*||
||---------------------------------------||
||-----------Drums-&-Bass-Only-----------||
||*-------------------------------------*||
||---------------------------------------||
|                                         |
| Bass                                    |
||---------------------------------------||
||*-------------------------------------*||
||*------------5/7\5--------------------*||
||--7--7--7--7--------7-5h7p5-7-7-5h7p5--||



Riff B (4:47)                            8x
||------------------------------------------||
||*----------------------------------------*||
||------------------------------------------||
||-------------7/9\7------------------------||
||*-9--9--9----5/7\5--9--7/9\7-9-9--7/9\7--*||
||--7--7--7--0--------7--5/7\5-7-7--5/7\5---||
             .


Riff C (5:18)                                                            
||-------------------------------------------------------------------------||
||*-----------------------------------------------------------------------*||
||-------------------------------------------------------------------------||
||-------------7/9\7-----------------------------------------9-7-----------||
||*-9--9--9----5/7\5--9--7/9\7-9-9--7/9\7--9--9--9----4-3----7-5--9-7/9\7-*||
||--7--7--7--0--------7--5/7\5-7-7--5/7\5--7--7--7--0-2-1--0------7-5/7\5--||
             .                                      .      .


Solo - Rhythm (5:52)    22x
||-------------------------||
||*-----------------------*||
||-------------------------||
||-------------------------||
||*-----------------------*||
||--5h7p5-7--7-5h7p5-7--7--||



                                                    ________________________
Riff C (6:21)                                      |1,2,3                 4x| 
||-------------------------------------------------|------------------------||
||*------------------------------------------------|-----------------------*||
||-------------------------------------------------|------------------------||
||-------------7/9\7-------------------------------|----------9-7-----------||
||*-9--9--9----5/7\5--9--7/9\7-9-9--7/9\7--9--9--9-|---4-3----7-5--9-7/9\7-*||
||--7--7--7--0--------7--5/7\5-7-7--5/7\5--7--7--7-|-0-2-1--0------7-5/7\5--||
             .                                       .      .



 ________________
|4
|---------------------------------------------||
|---------------------------------------------||
|---------------------------------------------||
|----------9--7-----------------7---4~~~~-----||
|--4--3----7--5---------4---7---5---2~~~~-----||
|--2--1-----------------2---5-----------------||
Добавлено: 01.12.2013
Другие материалы по этой песне:
  • Аккорды и текст

Страница создана 01.12.2013
http://primanota.ru/bongzilla/cutdown-chords.htm
Привет, Гость.
Предлагаем пройти революционный курс по гитаре.
Подарок от PrimaNota.Ru, забирай!