PrimaNota.ru - самый крупный в мире бесплатный архив песенных текстов, аккордов, табулатур и нот


Bongzilla - Champagne Reefer - таба, видео

Регистрация Запомнить меня
Войти через:  Facebook Google Twitter Vk Yandex Mail.ru

Bongzilla - Champagne Reefer - таба, видео

Печатать
Просмотров: 115
Уроки эстрадного вокала в Санкт-Петербурге
Bongzilla - Champagne & Reefer
Amerijuanican (2005)
Tabbed By ruker
Tuned Down 2.5 Steps BEADF#B

-------------
Key:
-------------
. Palm Mute
~ Vibrato
h Hammer-On
p Pull-Off
b Bend
r 
/ Slide Up
\ Slide Down
-------------


Riff A (0:01)
  Rhythm                                        3x
||----------------------||------------------------||
||----------------------||*----------------------*||
||----------------------||------------------------||
||----------------------||------------------------||
||-2--2-5--7----5/7\5/7-||*-2--2-5--7----5/7\5/7-*||
||-0--0-3--5----3/5\3/5-||--0--0-3--5----3/5\3/5--||
|                                                  |
| Lead                                             |
||----------------------||------------------------||
||----------------------||*--/12-/17--12~-\------*||
||----------------------||------------------------||
||---------REST---------||------------------------||
||----------------------||*----------------------*||
||----------------------||------------------------||



Riff B (0:17)
  Rhythm
||-------------------------------||
||-------------------------------||
||-------------------------------||
||-------------------------------||
||-7--7--7--7-7-7-7--7--7--5/7\5-||
||-5--5--5--5-5-5-5--5--5--3/5\3-||
|           . . .                 |
| Lead                            |
||-------------------------------||
||-------------------------------||
||-------------------------------||
||-------------------------------||
||-7--7---3-5-5br-7--7-7-5-3-5---||
||-5--5-5---------5--5---------3-||
        .


Riff A (0:24)
  Rhythm                4x
||------------------------||
||*----------------------*||
||------------------------||
||------------------------||
||*-2--2-5--7----5/7\5/7-*||
||--0--0-3--5----3/5\3/5--||
|                          |
| Lead                     |
||------------------------||
||*--/12-/17--12~-\------*||
||------------------------||
||------------------------||
||*----------------------*||
||------------------------||



Riff B (0:39)
  Rhythm
||-------------------------------||
||-------------------------------||
||-------------------------------||
||-------------------------------||
||-7--7--7--7-7-7-7--7--7--5/7\5-||
||-5--5--5--5-5-5-5--5--5--3/5\3-||
|           . . .                 |
| Lead                            |
||-------------------------------||
||-------------------------------||
||-------------------------------||
||-------------------------------||
||-7--7---3-5-5br-7--7-7-5-3-5---||
||-5--5-5---------5--5---------3-||
        .


Riff A (0:45)
  Rhythm                4x
||------------------------||
||*----------------------*||
||------------------------||
||------------------------||
||*-2--2-5--7----5/7\5/7-*||
||--0--0-3--5----3/5\3/5--||
|                          |
| Lead                     |
||------------------------||
||*--/12-/15b-12~-\------*||
||------------------------||
||------------------------||
||*----------------------*||
||------------------------||



Riff C (1:01)
  Rhythm
||--------------------------||
||--------------------------||
||--------------------------||
||--------------------------||
||-9--9--9--9-9--7--7-\5-/7-||
||-7--7--7--7-7--5--5-\3-/5-||



Riff A (1:08)
  Rhythm                4x
||------------------------||
||*----------------------*||
||------------------------||
||------------------------||
||*-2--2-5--7----5/7\5/7-*||
||--0--0-3--5----3/5\3/5--||
|                          |
| Lead                     |
||------------------------||
||*--/12-/17--12~-\------*||
||------------------------||
||------------------------||
||*----------------------*||
||------------------------||



Riff B (1:23)
  Rhythm
||-------------------------------||
||-------------------------------||
||-------------------------------||
||-------------------------------||
||-7--7--7--7-7-7-7--7--7--5/7\5-||
||-5--5--5--5-5-5-5--5--5--3/5\3-||
|           . . .                 |
| Lead                            |
||-------------------------------||
||-------------------------------||
||-------------------------------||
||-------------------------------||
||-7--7---3-5-5br-7--7-7-5-3-5---||
||-5--5-5---------5--5---------3-||
        .


Riff A (1:31)
  Rhythm                4x
||------------------------||
||*----------------------*||
||------------------------||
||------------------------||
||*-2--2-5--7----5/7\5/7-*||
||--0--0-3--5----3/5\3/5--||
|                          |
| Lead                     |
||------------------------||
||*--/12-/15b-12~-\------*||
||------------------------||
||------------------------||
||*----------------------*||
||------------------------||



Riff B (1:46)
  Rhythm
||-------------------------------||
||-------------------------------||
||-------------------------------||
||-------------------------------||
||-7--7--7--7-7-7-7--7--7--5/7\5-||
||-5--5--5--5-5-5-5--5--5--3/5\3-||
|           . . .                 |
| Lead                            |
||-------------------------------||
||-------------------------------||
||-------------------------------||
||-------------------------------||
||-7--7---3-5-5br-7--7-7-5-3-5---||
||-5--5-5---------5--5---------3-||
        .


Riff A (1:53)
  Rhythm                4x
||------------------------||
||*----------------------*||
||------------------------||
||------------------------||
||*-2--2-5--7----5/7\5/7-*||
||--0--0-3--5----3/5\3/5--||
|                          |
| Lead                     |
||------------------------||
||*--/12-/17--12~-\------*||
||------------------------||
||------------------------||
||*----------------------*||
||------------------------||



Riff C (2:08)
  Rhythm
||--------------------------||
||--------------------------||
||--------------------------||
||--------------------------||
||-9--9--9--9-9--7--7-\5-/7-||
||-7--7--7--7-7--5--5-\3-/5-||



Riff A (2:16) Solo Section
  Rhythm                4x
||------------------------||
||*----------------------*||
||------------------------||
||------------------------||
||*-2--2-5--7----5/7\5/7-*||
||--0--0-3--5----3/5\3/5--||



Riff B (2:30)
  Rhythm
||-------------------------------||
||-------------------------------||
||-------------------------------||
||-------------------------------||
||-7--7--7--7-7-7-7--7--7--5/7\5-||
||-5--5--5--5-5-5-5--5--5--3/5\3-||



Riff A (2:38)
  Rhythm                4x
||------------------------||
||*----------------------*||
||------------------------||
||------------------------||
||*-2--2-5--7----5/7\5/7-*||
||--0--0-3--5----3/5\3/5--||



Riff C (2:52)
  Rhythm
||--------------------------||
||--------------------------||
||--------------------------||
||--------------------------||
||-9--9--9--9-9--7--7-\5-/7-||
||-7--7--7--7-7--5--5-\3-/5-||



Riff A (3:00)
  Rhythm                4x
||------------------------||
||*----------------------*||
||------------------------||
||------------------------||
||*-2--2-5--7----5/7\5/7-*||
||--0--0-3--5----3/5\3/5--||



Riff C (3:15)
  Rhythm
||--------------------------||
||--------------------------||
||--------------------------||
||--------------------------||
||-9--9--9--9-9--7--7-\5-/7-||
||-7--7--7--7-7--5--5-\3-/5-||



Riff A (3:22)
  Rhythm                4x
||------------------------||
||*----------------------*||
||------------------------||
||------------------------||
||*-2--2-5--7----5/7\5/7-*||
||--0--0-3--5----3/5\3/5--||
|                          |
| Lead                     |
||------------------------||
||*--/12-/15b-12~-\------*||
||------------------------||
||------------------------||
||*----------------------*||
||------------------------||



Riff B (3:37)
  Rhythm
||-------------------------------||
||-------------------------------||
||-------------------------------||
||-------------------------------||
||-7--7--7--7-7-7-7--7--7--5/7\5-||
||-5--5--5--5-5-5-5--5--5--3/5\3-||



Riff A (3:45)
  Rhythm                4x
||------------------------||
||*----------------------*||
||------------------------||
||------------------------||
||*-2--2-5--7----5/7\5/7-*||
||--0--0-3--5----3/5\3/5--||
|                          |
| Lead                     |
||------------------------||
||*--/12-/17--12~-\------*||
||------------------------||
||------------------------||
||*----------------------*||
||------------------------||



Riff B (3:59)
  Rhythm
||-------------------------------||
||-------------------------------||
||-------------------------------||
||-------------------------------||
||-7--7--7--7-7-7-7--7--7--5/7\5-||
||-5--5--5--5-5-5-5--5--5--3/5\3-||



Riff A (4:06)
  Rhythm                4x
||------------------------||
||*----------------------*||
||------------------------||
||------------------------||
||*-2--2-5--7----5/7\5/7-*||
||--0--0-3--5----3/5\3/5--||
|                          |
| Lead                     |
||------------------------||
||*--/12-/17--12~-\------*||
||------------------------||
||------------------------||
||*----------------------*||
||------------------------||



Riff C (4:21)
  Rhythm
||--------------------------||
||--------------------------||
||--------------------------||
||--------------------------||
||-9--9--9--9-9--7--7-\5-/7-||
||-7--7--7--7-7--5--5-\3-/5-||



Outro (4:29)
  Rhythm
||------------------------------------||
||------------------------------------||
||------------------------------------||
||-2~------------------------------2--||
||-2~------------------------------2--||
||-0~------------------------------0--||
|                                      |
| Lead                                 |
||-15p12p0-15p12p0-15p12p0-15p12p0----||
||------------------------------------||
||------------------------------------||
||------------------------------------||
||------------------------------------||
||------------------------------------||
Добавлено: 06.06.2013
Другие материалы по этой песне:
  • Аккорды и текст

Страница создана 06.06.2013
http://primanota.ru/bongzilla/champagne-reefer-chords.htm
Привет, Гость.
Предлагаем пройти революционный курс по гитаре.
Подарок от PrimaNota.Ru, забирай!