PrimaNota.ru - самый крупный в мире бесплатный архив песенных текстов, аккордов, табулатур и нот


Bongzilla - Amerijuanican - таба, видео

Регистрация Запомнить меня
Войти через:  Facebook Google Twitter Vk Yandex Mail.ru

Bongzilla - Amerijuanican - таба, видео

Печатать
Просмотров: 104
Bongzilla - Amerijuanican
Amerijuanican (2005)
Tabbed By ruker (Varuker@gmail.com)
Tuned Down 3 Steps BEADF#B

-------------
Key:
-------------
. Palm Mute
~ Vibrato
h Hammer-On
p Pull-Off
\ Slide Up
/ Slide Down
-------------



Intro (0:02)                   4x
||-------------------------------||
||*-----------------------------*||
||-------------------------------||
||-------------------------------||
||*-------4-6-6--7-6-4--6-4-----*||
||--6--6--------------------6-4--||



Riff A (0:22)                   4x
||-------------------------------||
||*-----------------------------*||
||-------------------------------||
||--------6-8-8--9-8-6--8-6------||
||*-8--8--4-6-6--7-6-4--6-4-8-6-*||
||--6--6--------------------6-4--||



Bridge (0:42)
  Lead
||-------------------------------------------------------------------||
||-------------------------------------------------------------------||
||-------------------------------------------------------------------||
||---------------------------------------------------------9--8-6----||
||------------------------4h6p4----------------------------7--6-4-6--||
||--6--6--6--4-6--4-6--6--------6--4-6--6--6--4-6--4-6--6---------4--||
|                                                                     |
|                                                                     |
| Rhythm                                                              |
||-------------------------------------------------------------------||
||-------------------------------------------------------------------||
||-------------------------------------------------------------------||
||---------------------------------------------------------9--8-6----||
||--4---------------------4h6p4----------------------------7--6-4-6--||
||--6---------------------------6---------------------------------4--||


                                                           ___________ _________
Riff B (0:51)                                             |1,2,3,4    |5        |
||--------------------------------------------------------|-----------|---------||
||*-------------------------------------------------------|----------*|---------||
||--------------------------------------------------------|-----------|---------||
||--------------------------------------------------------|-9--8-6----|-9--8-6--||
||*-8--8--8--6-8--6-8--8--4h6p4----6-8--8--8--6-8--6-8--8-|-7--6-4-6-*|-7--6-4--||
||--6--6--6--4-6--4-6--6--------6--4-6--6--6--4-6--4-6--6-|--------4--|---------||



Chorus (1:42)                                           4x
||--------------------------------------------------------||
||*------------------------------------------------------*||
||--------------------------------------------------------||
||----------6----8-9-8--6-8-6----------6----9-8-6--8-6----||
||*-6/8-8-8-4----6-7-6--4-6-4--6/8-8-8-4----7-6-4--6-4-8-*||
||--4/6-6-6--------------------4/6-6-6-----------------6--||
        . .                        . .

                                                           ___________ _________
Riff B (2:23)                                             |1,2,3,4    |5        |
||--------------------------------------------------------|-----------|---------||
||*-------------------------------------------------------|----------*|---------||
||--------------------------------------------------------|-----------|---------||
||--------------------------------------------------------|-9--8-6----|-9--8-6--||
||*-8--8--8--6-8--6-8--8--4h6p4----6-8--8--8--6-8--6-8--8-|-7--6-4-6-*|-7--6-4--||
||--6--6--6--4-6--4-6--6--------6--4-6--6--6--4-6--4-6--6-|--------4--|---------||



Chorus (3:14)                                           4x
||--------------------------------------------------------||
||*------------------------------------------------------*||
||--------------------------------------------------------||
||----------6----8-9-8--6-8-6----------6----9-8-6--8-6----||
||*-6/8-8-8-4----6-7-6--4-6-4--6/8-8-8-4----7-6-4--6-4-8-*||
||--4/6-6-6--------------------4/6-6-6-----------------6--||
        . .                        . .


Riff C (3:53)                                                            4x
||-------------------------------------------------------------------------||
||*-----------------------------------------------------------------------*||
||-------------------------------------------------------------------------||
||--------------------------------------------------9--8-6--8-8--6---------||
||*-8--8--8--6-8--6-8--8--6--8-6--8-8--8--8--6-8--6-7--6-4--6-6--4-4--6-8-*||
||--6--6--6--4-6--4-6--6--4--6-4--6-6--6--6--4-6--4----------------6--4-6--||



Solo Rhythm (4:34) 18x
||--------------------||
||*------------------*||
||--------------------||
||--------6-----------||
||*-8--8--4--8-------*||
||--6--6-----6-4h6p4--||



Outro (5:19)                                                                4x
||----------------------------------------------------------------------------||
||*--------------------------------------------------------------------------*||
||----------------------------------------------------------------------------||
||--------6----------------9--8-------------6----------9--8-------8--6--------||
||*-8--8--4--8-------8--8--7--6-4h6p4-8--8--4--8-------7--6-4h6p4-6--4-------*||
||--6--6-----6-4h6p4-6--6-------------6--6-----6-4h6p4-----------------4h6p4--||



                         4x
||-------------------------||
||*-----------------------*||
||-------------------------||
||--9--8-------8--6--------||
||*-7--6-4h6p4-6--4-------*||
||------------------4h6p4--||


                                                                            4x
||----------------------------------------------------------------------------||
||*--------------------------------------------------------------------------*||
||----------------------------------------------------------------------------||
||--------6----------------9--8-------------6----------9--8-------8--6--------||
||*-8--8--4--8-------8--8--7--6-4h6p4-8--8--4--8-------7--6-4h6p4-6--4-------*||
||--6--6-----6-4h6p4-6--6-------------6--6-----6-4h6p4-----------------4h6p4--||



                         4x
||-------------------------||||-----------||
||*-----------------------*||||-----------||
||-------------------------||||-----------||
||--9--8-------8--6--------||||-----------||
||*-7--6-4h6p4-6--4-------*||||--8~-------||
||------------------4h6p4--||||--6~-------||
Добавлено: 10.06.2013
Другие материалы по этой песне:
  • Аккорды и текст

Страница создана 10.06.2013
http://primanota.ru/bongzilla/amerijuanican-chords.htm
Привет, Гость.
Предлагаем пройти революционный курс по гитаре.
Подарок от PrimaNota.Ru, забирай!