PrimaNota.ru - самый крупный в мире бесплатный архив песенных текстов, аккордов, табулатур и нот


Bongzilla - Amerijuanican (album) - таба, видео

Регистрация Запомнить меня
Войти через:  Facebook Google Twitter Vk Yandex Mail.ru

Bongzilla - Amerijuanican (album) - таба, видео

Печатать
Просмотров: 81
Bongzilla
Amerijuanican (2005)
Tabbed By ruker (Varuker@gmail.com)
Tuned Down 2.5 Steps BEADF#B

-------------
Key:
-------------
. Palm Mute
~ Vibrato
h Hammer-On
p Pull-Off
b Bend
r Release
/ Slide Up
\ Slide Down
-------------


------------------------------------------------------------------------------
                                1. Amerijuanican
------------------------------------------------------------------------------

Intro (0:02)                   4x
||-------------------------------||
||*-----------------------------*||
||-------------------------------||
||-------------------------------||
||*-------4-6-6--7-6-4--6-4-----*||
||--6--6--------------------6-4--||


Riff A (0:22)                   4x
||-------------------------------||
||*-----------------------------*||
||-------------------------------||
||--------6-8-8--9-8-6--8-6------||
||*-8--8--4-6-6--7-6-4--6-4-8-6-*||
||--6--6--------------------6-4--||


Bridge (0:42)
  Lead
||-------------------------------------------------------------------||
||-------------------------------------------------------------------||
||-------------------------------------------------------------------||
||---------------------------------------------------------9--8-6----||
||------------------------4h6p4----------------------------7--6-4-6--||
||--6--6--6--4-6--4-6--6--------6--4-6--6--6--4-6--4-6--6---------4--||
|                                                                     |
|                                                                     |
| Rhythm                                                              |
||-------------------------------------------------------------------||
||-------------------------------------------------------------------||
||-------------------------------------------------------------------||
||---------------------------------------------------------9--8-6----||
||--4---------------------4h6p4----------------------------7--6-4-6--||
||--6---------------------------6---------------------------------4--||

                                                           ___________ _________
Riff B (0:51)                                             |1,2,3,4    |5        |
||--------------------------------------------------------|-----------|---------||
||*-------------------------------------------------------|----------*|---------||
||--------------------------------------------------------|-----------|---------||
||--------------------------------------------------------|-9--8-6----|-9--8-6--||
||*-8--8--8--6-8--6-8--8--4h6p4----6-8--8--8--6-8--6-8--8-|-7--6-4-6-*|-7--6-4--||
||--6--6--6--4-6--4-6--6--------6--4-6--6--6--4-6--4-6--6-|--------4--|---------||


Chorus (1:42)                                           4x
||--------------------------------------------------------||
||*------------------------------------------------------*||
||--------------------------------------------------------||
||----------6----8-9-8--6-8-6----------6----9-8-6--8-6----||
||*-6/8-8-8-4----6-7-6--4-6-4--6/8-8-8-4----7-6-4--6-4-8-*||
||--4/6-6-6--------------------4/6-6-6-----------------6--||
        . .                        . .
                                                           ___________ _________
Riff B (2:23)                                             |1,2,3,4    |5        |
||--------------------------------------------------------|-----------|---------||
||*-------------------------------------------------------|----------*|---------||
||--------------------------------------------------------|-----------|---------||
||--------------------------------------------------------|-9--8-6----|-9--8-6--||
||*-8--8--8--6-8--6-8--8--4h6p4----6-8--8--8--6-8--6-8--8-|-7--6-4-6-*|-7--6-4--||
||--6--6--6--4-6--4-6--6--------6--4-6--6--6--4-6--4-6--6-|--------4--|---------||


Chorus (3:14)                                           4x
||--------------------------------------------------------||
||*------------------------------------------------------*||
||--------------------------------------------------------||
||----------6----8-9-8--6-8-6----------6----9-8-6--8-6----||
||*-6/8-8-8-4----6-7-6--4-6-4--6/8-8-8-4----7-6-4--6-4-8-*||
||--4/6-6-6--------------------4/6-6-6-----------------6--||
        . .                        . .

Riff C (3:53)                                                            4x
||-------------------------------------------------------------------------||
||*-----------------------------------------------------------------------*||
||-------------------------------------------------------------------------||
||--------------------------------------------------9--8-6--8-8--6---------||
||*-8--8--8--6-8--6-8--8--6--8-6--8-8--8--8--6-8--6-7--6-4--6-6--4-4--6-8-*||
||--6--6--6--4-6--4-6--6--4--6-4--6-6--6--6--4-6--4----------------6--4-6--||


Solo Rhythm (4:34) 18x
||--------------------||
||*------------------*||
||--------------------||
||--------6-----------||
||*-8--8--4--8-------*||
||--6--6-----6-4h6p4--||


Solo Lead (Thanks to UG user Survivalism)
||--------------------------------------------------------------|
||--------------------------------------------------------------|
||--------------------------------------------------------------|
||-8----10b--8--6--8--8---10b--8--6--8--6--8--8--11--13b---11-8-|
||--------------------------------------------------------------|
||--------------------------------------------------------------|


|--------------------------------------------------------------|
|--------------------------------------------------------------|
|--------------------------------------------------------------|
|-8----6h8---------------------------------8--11---------------|
|----------8--6b-6---4-4h6p4-----------8-----------8--6--8--8--|
|----------------------------4h6p4-----------------------------|


|-------------------------------------------------------------------------------|
|-------------------------------------------------------------------------------|
|-------------------------------------------------------------------------------|
|-----8b-----8b----------8b----8b---------8-6---6-------6-8-6-------------------|
|-8-6-8b-----8b---8-6-8--8b----8b---8-6-6-8---8---8-6-8-------8-6-6-4-6-6-------|
|-------------------------------------------------------------------------6-4/6-|


|----------------------------------------------------------------|
|----------------------------------------------------------------|
|----------------------------------------------------------------|
|---------6---------------------8-----6-8-6---------8----6h8-8-8-|
|-8--8----4--8--6-4-----8--8----8--8---------8--8---8--8---------|
|-6--6-------6------6---6--6-------6---------6--6------6---------|


|--------------------------------------------------------------------||
|--------------------------------------------------------------------||
|--------------------------------------------------------------------||
|---------6-----8-6-8-----------11--8--6-8-6-8-6---------------------||
|-8--8----4--8----------8--8---------------------8-8-6-6-4-------4-6-||
|-6--6-------6----------6--6-------------------------------6-4-6-----||


Outro (5:19)                                                                4x
||----------------------------------------------------------------------------||
||*--------------------------------------------------------------------------*||
||----------------------------------------------------------------------------||
||--------6----------------9--8-------------6----------9--8-------8--6--------||
||*-8--8--4--8-------8--8--7--6-4h6p4-8--8--4--8-------7--6-4h6p4-6--4-------*||
||--6--6-----6-4h6p4-6--6-------------6--6-----6-4h6p4-----------------4h6p4--||

                         4x
||-------------------------||
||*-----------------------*||
||-------------------------||
||--9--8-------8--6--------||
||*-7--6-4h6p4-6--4-------*||
||------------------4h6p4--||

                                                                            4x
||----------------------------------------------------------------------------||
||*--------------------------------------------------------------------------*||
||----------------------------------------------------------------------------||
||--------6----------------9--8-------------6----------9--8-------8--6--------||
||*-8--8--4--8-------8--8--7--6-4h6p4-8--8--4--8-------7--6-4h6p4-6--4-------*||
||--6--6-----6-4h6p4-6--6-------------6--6-----6-4h6p4-----------------4h6p4--||

                         4x
||-------------------------|||-----------||
||*-----------------------*|||-----------||
||-------------------------|||-----------||
||--9--8-------8--6--------|||-----------||
||*-7--6-4h6p4-6--4-------*|||--8~-------||
||------------------4h6p4--|||--6~-------||



------------------------------------------------------------------------------
                              2. Kash Under Glass
------------------------------------------------------------------------------

Fade-In Feedback

Riff A (0:01)                                  4x
||-----------------------------------------------||
||*---------------------------------------------*||
||-----------------------------------------------||
||-----------------------------------------------||
||*----------------------------------5-7-5-5h7~-*||
||--0--0-3p2-0-0--0-5p3-0-0--0-3p2-0-------------||


Riff B (0:20)
||--------------------------------------------------------------------------------------||
||*------------------------------------------------------------------------------------*||
||--------------------------------------------------------------------------------------||
||--9--9-9-9-9-9/10\9-7---9--9-9-9-9-9/10\9-12-----9--9-9-9-9-9/10\9-7------------------||
||*-7--7-7-7-7-7/8-\7-5---7--7-7-7-7-7/8-\7-10-----7--7-7-7-7-7/8-\7-5---8-7-----5-4---*||
||-----------------------------------------------------------------------6-5---0-3-2----||
       . . . .               . . . .                   . . . .                 .

Riff A (0:37)                                  6x
||-----------------------------------------------||
||*---------------------------------------------*||
||-----------------------------------------------||
||-----------------------------------------------||
||*----------------------------------5-7-5-5h7~-*||
||--0--0-3p2-0-0--0-5p3-0-0--0-3p2-0-------------||


Riff B (1:06)
||--------------------------------------------------------------------------------------||
||*------------------------------------------------------------------------------------*||
||--------------------------------------------------------------------------------------||
||--9--9-9-9-9-9/10\9-7---9--9-9-9-9-9/10\9-12-----9--9-9-9-9-9/10\9-7------------------||
||*-7--7-7-7-7-7/8-\7-5---7--7-7-7-7-7/8-\7-10-----7--7-7-7-7-7/8-\7-5---8-7-----5-4---*||
||-----------------------------------------------------------------------6-5---0-3-2----||
       . . . .               . . . .                   . . . .                 .

Chorus (1:23)                                        4x
||-----------------------------------------------------||
||*---------------------------------------------------*||
||-----------------------------------------------------||
||--9--7---------------------9--7----------------------||
||*-7--5--8-7--8--7--5--7-5--7--5--8-7--8--7--5--4-4--*||
||--------6-5--6--5--3--5-3--------6-5--6--5--3--2-2---||


Riff A (1:57)                                  6x
||-----------------------------------------------||
||*---------------------------------------------*||
||-----------------------------------------------||
||-----------------------------------------------||
||*----------------------------------5-7-5-5h7~-*||
||--0--0-3p2-0-0--0-5p3-0-0--0-3p2-0-------------||


Riff B (2:24)
||--------------------------------------------------------------------------------------||
||*------------------------------------------------------------------------------------*||
||--------------------------------------------------------------------------------------||
||--9--9-9-9-9-9/10\9-7---9--9-9-9-9-9/10\9-12-----9--9-9-9-9-9/10\9-7------------------||
||*-7--7-7-7-7-7/8-\7-5---7--7-7-7-7-7/8-\7-10-----7--7-7-7-7-7/8-\7-5---8-7-----5-4---*||
||-----------------------------------------------------------------------6-5---0-3-2----||
       . . . .               . . . .                   . . . .                 .

Chorus (2:42)                                        4x
||-----------------------------------------------------||
||*---------------------------------------------------*||
||-----------------------------------------------------||
||--9--7---------------------9--7----------------------||
||*-7--5--8-7--8--7--5--7-5--7--5--8-7--8--7--5--4-4--*||
||--------6-5--6--5--3--5-3--------6-5--6--5--3--2-2---||


Outro (3:16)
||--------------------------------------------------------------------------------|
||*-------------------------------------------------------------------------------|
||--------------------------------------------------------------------------------|
||--------------------------------------------------------------------------------|
||*-2----------2----------2----------7--5--2----------2----------2----------5--4--|
||--0--0-0-0-0-0--0-0-0-0-0--0-0-0-0-5--3--0--0-0-0-0-0--0-0-0-0-0--0-0-0-0-3--2--|
       . . . .    . . . .    . . . .          . . . .    . . . .    . . . .

|------------------------------------------------------------------||
|-----------------------------------------------------------------*||
|------------------------------------------------------------------||
|-----------------------------------------9--7---------------------||
|--2----------2----------2----------7--5--7--5--8--7--5--7--5--4--*||
|--0--0-0-0-0-0--0-0-0-0-0--0-0-0-0-5--3--------6--5--3--5--3--2---||
      . . . .    . . . .    . . . .

||--------------------------------------------------------------------------------|
||--------------------------------------------------------------------------------|
||--------------------------------------------------------------------------------|
||--------------------------------------------------------------------------------|
||--2----------2----------2----------7--5--2----------2----------2----------5--4--|
||--0--0-0-0-0-0--0-0-0-0-0--0-0-0-0-5--3--0--0-0-0-0-0--0-0-0-0-0--0-0-0-0-3--2--|
       . . . .    . . . .    . . . .          . . . .    . . . .    . . . .        

|--------------------------------------------------------------------------------||
|--------------------------------------------------------------------------------||
|--------------------------------------------------------------------------------||
|-----------------------------------------9--7-----------------------------------||
|--2----------2----------2----------7--5--7--5--8--7---5---7----5----4----2------||
|--0--0-0-0-0-0--0-0-0-0-0--0-0-0-0-5--3--------6--5---3---5----3----2----0------||
      . . . .    . . . .    . . . .


------------------------------------------------------------------------------
                              3. Tri-Pack Master
------------------------------------------------------------------------------

Riff A (0:07)                                       4x
||----------------------------------------------------||
||*--------------------------------------------------*||
||----------------------------------------------------||
||----------------------------------------------------||
||*-5/7-7-7--7--7--5-7-7-7--5/7-7-7--7--9--8--7--5-7-*||
||--3/5-5-5--5--5--3-5-5-5--3/5-5-5--5--7--6--5--3-5--||


Riff B (0:26)                       4x
||------------------------------------||
||*----------------------------------*||
||------------------------------------||
||--------------7--9-9--7-------------||
||*-5--7--8--9--5--7-7--5--9--8--7-5-*||
||--3--5--6--7-------------7--6--5-3--||


Riff A (0:45)                                       4x
||----------------------------------------------------||
||*--------------------------------------------------*||
||----------------------------------------------------||
||----------------------------------------------------||
||*-5/7-7-7--7--7--5-7-7-7--5/7-7-7--7--9--8--7--5-7-*||
||--3/5-5-5--5--5--3-5-5-5--3/5-5-5--5--7--6--5--3-5--||


Riff B (1:04)                       4x
||------------------------------------||
||*----------------------------------*||
||------------------------------------||
||--------------7--9-9--7-------------||
||*-5--7--8--9--5--7-7--5--9--8--7-5-*||
||--3--5--6--7-------------7--6--5-3--||


Chorus (1:23)                            4x
||-----------------------------------------||
||*---------------------------------------*||
||-----------------------------------------||
||-----------------------------------------||
||*-9--8--7---5--7\5/7--9--8--7---5--7--5-*||
||--7--6--5---3--5\3/5--7--6--5---3--5--3--||


Riff A (1:43)                                       4x
||----------------------------------------------------||
||*--------------------------------------------------*||
||----------------------------------------------------||
||----------------------------------------------------||
||*-5/7-7-7--7--7--5-7-7-7--5/7-7-7--7--9--8--7--5-7-*||
||--3/5-5-5--5--5--3-5-5-5--3/5-5-5--5--7--6--5--3-5--||


Riff B (2:01)                       4x
||------------------------------------||
||*----------------------------------*||
||------------------------------------||
||--------------7--9-9--7-------------||
||*-5--7--8--9--5--7-7--5--9--8--7-5-*||
||--3--5--6--7-------------7--6--5-3--||


Chorus (2:21)                            6x
||-----------------------------------------||
||*---------------------------------------*||
||-----------------------------------------||
||-----------------------------------------||
||*-9--8--7---5--7\5/7--9--8--7---5--7--5-*||
||--7--6--5---3--5\3/5--7--6--5---3--5--3--||


Outro (2:49)
||-----------------------------------------------------||
||*---------------------------------------------------*||
||-----------------------------------------------------||
||-----------------------------------------------------||
||*-5/7-7-7--7--7--7-7-/10~--5/7-7-7--7--7--7-7-/12~--*||
||--3/5-5-5--5--5--5-5-------3/5-5-5--5--5--5-5--------||



------------------------------------------------------------------------------
                                 4. Cutdown
------------------------------------------------------------------------------
                                                            ___________
Intro (0:01)                                               |1,2,3    4x|
||---------------------------------------------------------|-----------||
||*--------------------------------------------------------|----------*||
||---------------------------------------------------------|-----------||
||---------------------------------------------------------|-----------||
||*-5--2--5-2--5--2--5-2-----------2--5--2--5-2--5--2--5-2-|-------2--*||
||------------------------5--2--5--------------------------|-2--5------||


Riff A (0:35)
  ________________
 |4                                     5x 
||----------------------------------------||
||*--------------------------------------*||
||----------------------------------------||
||----------------------------------------||
||*-4--7--12--9----9\7-7/9----9\7-7/9----*||
||--2--5--10--7----7\5-5/7----7\5-5/7-----||


Fill A (1:28)               
  Guitar                        4x
||--------------------------------||
||*-----------!REST!-------------*||
||--------------------------------||
||--------Drums-&-Bass-Only-------||
||*------------------------------*||
||--------------------------------||
|                                  |
| Bass                             |
||--------------------------------||
||*------------------------------*||
||*------------------------------*||
||--2--5--10--7----5--7---5--7----||


Riff A (2:11)                           5x
||----------------------------------------||
||*--------------------------------------*||
||----------------------------------------||
||----------------------------------------||
||*-4--7--12--9----9\7-7/9----9\7-7/9----*||
||--2--5--10--7----7\5-5/7----7\5-5/7-----||


Fill A (3:04)               
  Guitar                        4x
||--------------------------------||
||*-----------!REST!-------------*||
||--------------------------------||
||--------Drums-&-Bass-Only-------||
||*------------------------------*||
||--------------------------------||
|                                  |
| Bass                             |
||--------------------------------||
||*------------------------------*||
||*------------------------------*||
||--2--5--10--7----5--7---5--7----||


Riff A (3:47)                           5x
||----------------------------------------||
||*--------------------------------------*||
||----------------------------------------||
||----------------------------------------||
||*-4--7--12--9----9\7-7/9----9\7-7/9----*||
||--2--5--10--7----7\5-5/7----7\5-5/7-----||


Fill B (4:39)               
  Guitar
||---------------------------------------||
||*--------------!REST!-----------------*||
||---------------------------------------||
||-----------Drums-&-Bass-Only-----------||
||*-------------------------------------*||
||---------------------------------------||
|                                         |
| Bass                                    |
||---------------------------------------||
||*-------------------------------------*||
||*------------5/7\5--------------------*||
||--7--7--7--7--------7-5h7p5-7-7-5h7p5--||


Riff B (4:47)                             8x
||------------------------------------------||
||*----------------------------------------*||
||------------------------------------------||
||-------------7/9\7------------------------||
||*-9--9--9----5/7\5--9--7/9\7-9-9--7/9\7--*||
||--7--7--7--0--------7--5/7\5-7-7--5/7\5---||
             .

Riff C (5:18)                                                            
||-------------------------------------------------------------------------||
||*-----------------------------------------------------------------------*||
||-------------------------------------------------------------------------||
||-------------7/9\7-----------------------------------------9-7-----------||
||*-9--9--9----5/7\5--9--7/9\7-9-9--7/9\7--9--9--9----4-3----7-5--9-7/9\7-*||
||--7--7--7--0--------7--5/7\5-7-7--5/7\5--7--7--7--0-2-1--0------7-5/7\5--||
             .                                      .      .

Solo - Rhythm (5:52)    22x
||-------------------------||
||*-----------------------*||
||-------------------------||
||-------------------------||
||*-----------------------*||
||--5h7p5-7--7-5h7p5-7--7--||

                                                    ________________________
Riff C (6:21)                                      |1,2,3                 4x| 
||-------------------------------------------------|------------------------||
||*------------------------------------------------|-----------------------*||
||-------------------------------------------------|------------------------||
||-------------7/9\7-------------------------------|----------9-7-----------||
||*-9--9--9----5/7\5--9--7/9\7-9-9--7/9\7--9--9--9-|---4-3----7-5--9-7/9\7-*||
||--7--7--7--0--------7--5/7\5-7-7--5/7\5--7--7--7-|-0-2-1--0------7-5/7\5--||
             .                                       .      .
 ________________
|4
|---------------------------------------------||
|---------------------------------------------||
|---------------------------------------------||
|----------9--7-----------------7---4~~~~-----||
|--4--3----7--5---------4---7---5---2~~~~-----||
|--2--1-----------------2---5-----------------||



------------------------------------------------------------------------------
                               5. Weedy Woman
------------------------------------------------------------------------------
                                                 _________
Intro (0:05)                                    |1,2    3x| 
||----------------------------------------------|---------||
||*---------------------------------------------|--------*||
||----------------------------------------------|---------||
||-----------9-8----8--8------------------------|---------||
||*-8--8--8--7-6----6--6--10-9-8--8--6-8-6-8--8-|-3-6-6--*||
||--6--6--6---------------8--7-6--6--4-6-4-6--6-|-1-4-4---||


Riff A (0:47) 
  ___________________
 |3
||---------------------------------------------------------||
||*-------------------------------------------------------*||
||---------------------------------------------------------||
||---------------------------------------------------------||
||*----------4-6--4-6-4-7-6-4------------4-6--7-6-4-------*||
||--1--4--6-------------------6-1--4--6-------------6-4-6--||


Fill (1:04)
||--------------||
||*------------*||
||--------------||
||--------------||
||*------------*||
||--4h6--4h6----||


Riff B (1:08)                                                  5x
||---------------------------------------------------------------||
||*-------------------------------------------------------------*||
||---------------------------------------------------------------||
||--------------------------------------------------9-8----------||
||*-6-8--6-8--8--8--6-8--6-8--8--8--6-8--6-8--8--8--7-6--109-8--*||
||--4-6--4-6--6--6--4-6--4-6--6--6--4-6--4-6--6--6-------8-7-6---||
                                                         .

Chorus (1:48)                                      4x 
||---------------------------------------------------||
||*-------------------------------------------------*||
||---------------------------------------------------||
||---------------------------------------------------||
||*-----------------------4--6--7--6--4-------------*||
||--4h6--4h6----4h6--4h6-----------------6--4--6-----||


Fill (2:19)   3x
||--------------||
||*------------*||
||--------------||
||--------------||
||*------------*||
||--4h6--4h6----||


Riff B (2:26)                                                  5x
||---------------------------------------------------------------||
||*-------------------------------------------------------------*||
||---------------------------------------------------------------||
||--------------------------------------------------9-8----------||
||*-6-8--6-8--8--8--6-8--6-8--8--8--6-8--6-8--8--8--7-6--109-8--*||
||--4-6--4-6--6--6--4-6--4-6--6--6--4-6--4-6--6--6-------8-7-6---||
                                                         .

Riff C (3:04)                                           4x
||--------------------------------------------------------||
||*------------------------------------------------------*||
||--------------------------------------------------------||
||--------------------------------------9--8--------------||
||*-8-8-8--6-6--8-8-8--6-6--8-8-8--6-6--7--6--10--9-8-6--*||
||--6-6-6--4-4--6-6-6--4-4--6-6-6--4-4--------8---7-6-4---||


Riff D (3:36)                                           3x
||--------------------------------------------------------||
||*------------------------------------------------------*||
||--------------------------------------------------------||
||--------------------------------------9--8--------------||
||*-8-8-6--8-6--8-8-6--8-6--8-8-6--8-6--7--6--10--9-8-6--*||
||--6-6-4--6-4--6-6-4--6-4--6-6-4--6-4--------8---7-6-4---||


Outro (4:09)
||------------------------------||
||------------------------------||
||------------------------------||
||------------------------------||
||--8---8----6~~~~~~~/----(14)--||
||--6---6----4~~~~~~~/----(12)--||



------------------------------------------------------------------------------
                               6. Stonesphere
------------------------------------------------------------------------------

Intro (0:08)
||---------------------------------------------------||
||*-------------------------------------------------*||
||---------------------------------------------------||
||--------------5--7--5-7p5h7------------------------||
||*-5--7-7--7------------------5--7-7--7---5--7\----*||
||---------------------------------------------------||


Riff A (0:22)                                              26x
||------------------------------------------------------------||
||*----------------------------------------------------------*||
||--------------7--9--7-9\7/9---------------------------------||
||--7--9-9--9---5--7--5-7\5/7--7--9-9--9---5-5----4-4---------||
||*-5--7-7--7------------------5--7-7--7--------5------5-7\--*||
||------------------------------------------------------------||

                               ____________
Riff B (2:32)                 |1,2,3     4x|
||----------------------------|------------||
||*---------------------------|-----------*||
||----------------------------|------------||
||--12---11--7-9\-----12---7--|-9--7-9\----||
||*-10---9---5-7\-----10---9--|-7--5-7\---*||
||----------------------------|------------||


Fill A (3:00)
  ______________
 |4             |
||--------------||
||*------------*||
||--------------||
||--9--7-9~-----||
||*-7--5-7~----*||
||--------------||


Fill B (3:50)
||--------------||
||*------------*||
||--------------||
||--7----9~-----||
||*-5----7~----*||
||--------------||


Fill C (4:48)
||---------------|| Feedback and
||---------------||   "rips" at
||---------------||      this part
||--9~~~~--------|| Alternative
||--7~~~~--------||   w/ Fill B
||---------------||   


Riff A (9:30)                                              26x
||------------------------------------------------------------||
||*----------------------------------------------------------*||
||--------------7--9--7-9\7/9--------------7-7----------------||
||--7--9-9--9---5--7--5-7\5/7--7--9-9--9---5-5--7-4-4--7-9\---||
||*-5--7-7--7------------------5--7-7--7--------5------5-7\--*||
||------------------------------------------------------------||

                               ____________
Riff B (11:22)                |1,2,3     4x|
||----------------------------|------------||
||*---------------------------|-----------*||
||----------------------------|------------||
||--12---11--7-9\-----12---7--|-9--7-9\----||
||*-10---9---5-7\-----10---9--|-7--5-7\---*||
||----------------------------|------------||


Fill A (11:50)
  ______________
 |4          10x|
||--------------||
||*------------*||
||--------------||
||--9--7-9~-----||
||*-7--5-7~----*||
||--------------||


Fill D (12:08)         8x
||-----------------------||
||*---------------------*||
||-----------------------||
||--9--7/9--7/9--7/9--7--||
||*-7--5/7--5/7--5/7--5-*||
||-----------------------||


Outro (12:24)
||-----------------------------||
||-----------------------------||
||-----------------------------||
||-9--7-9\-----12---11--7-9\---||
||-7--5-7\-----10---9---5-7\---||
||-----------------------------||



------------------------------------------------------------------------------
                            7. Champagne & Reefer
------------------------------------------------------------------------------

Riff A (0:01)
  Rhythm                                        3x
||----------------------||------------------------||
||----------------------||*----------------------*||
||----------------------||------------------------||
||----------------------||------------------------||
||-2--2-5--7----5/7\5/7-||*-2--2-5--7----5/7\5/7-*||
||-0--0-3--5----3/5\3/5-||--0--0-3--5----3/5\3/5--||
|                                                  |
| Lead                                             |
||----------------------||------------------------||
||----------------------||*--/12-/17--12~-\------*||
||----------------------||------------------------||
||---------REST---------||------------------------||
||----------------------||*----------------------*||
||----------------------||------------------------||


Riff B (0:17)
  Rhythm
||-------------------------------||
||-------------------------------||
||-------------------------------||
||-------------------------------||
||-7--7--7--7-7-7-7--7--7--5/7\5-||
||-5--5--5--5-5-5-5--5--5--3/5\3-||
|           . . .                 |
| Lead                            |
||-------------------------------||
||-------------------------------||
||-------------------------------||
||-------------------------------||
||-7--7---3-5-5br-7--7-7-5-3-5---||
||-5--5-5---------5--5---------3-||
        .

Riff A (0:24)
  Rhythm                4x
||------------------------||
||*----------------------*||
||------------------------||
||------------------------||
||*-2--2-5--7----5/7\5/7-*||
||--0--0-3--5----3/5\3/5--||
|                          |
| Lead                     |
||------------------------||
||*--/12-/17--12~-\------*||
||------------------------||
||------------------------||
||*----------------------*||
||------------------------||


Riff B (0:39)
  Rhythm
||-------------------------------||
||-------------------------------||
||-------------------------------||
||-------------------------------||
||-7--7--7--7-7-7-7--7--7--5/7\5-||
||-5--5--5--5-5-5-5--5--5--3/5\3-||
|           . . .                 |
| Lead                            |
||-------------------------------||
||-------------------------------||
||-------------------------------||
||-------------------------------||
||-7--7---3-5-5br-7--7-7-5-3-5---||
||-5--5-5---------5--5---------3-||
        .

Riff A (0:45)
  Rhythm                4x
||------------------------||
||*----------------------*||
||------------------------||
||------------------------||
||*-2--2-5--7----5/7\5/7-*||
||--0--0-3--5----3/5\3/5--||
|                          |
| Lead                     |
||------------------------||
||*--/12-/15b-12~-\------*||
||------------------------||
||------------------------||
||*----------------------*||
||------------------------||


Riff C (1:01)
  Rhythm
||--------------------------||
||--------------------------||
||--------------------------||
||--------------------------||
||-9--9--9--9-9--7--7-\5-/7-||
||-7--7--7--7-7--5--5-\3-/5-||


Riff A (1:08)
  Rhythm                4x
||------------------------||
||*----------------------*||
||------------------------||
||------------------------||
||*-2--2-5--7----5/7\5/7-*||
||--0--0-3--5----3/5\3/5--||
|                          |
| Lead                     |
||------------------------||
||*--/12-/17--12~-\------*||
||------------------------||
||------------------------||
||*----------------------*||
||------------------------||


Riff B (1:23)
  Rhythm
||-------------------------------||
||-------------------------------||
||-------------------------------||
||-------------------------------||
||-7--7--7--7-7-7-7--7--7--5/7\5-||
||-5--5--5--5-5-5-5--5--5--3/5\3-||
|           . . .                 |
| Lead                            |
||-------------------------------||
||-------------------------------||
||-------------------------------||
||-------------------------------||
||-7--7---3-5-5br-7--7-7-5-3-5---||
||-5--5-5---------5--5---------3-||
        .

Riff A (1:31)
  Rhythm                4x
||------------------------||
||*----------------------*||
||------------------------||
||------------------------||
||*-2--2-5--7----5/7\5/7-*||
||--0--0-3--5----3/5\3/5--||
|                          |
| Lead                     |
||------------------------||
||*--/12-/15b-12~-\------*||
||------------------------||
||------------------------||
||*----------------------*||
||------------------------||


Riff B (1:46)
  Rhythm
||-------------------------------||
||-------------------------------||
||-------------------------------||
||-------------------------------||
||-7--7--7--7-7-7-7--7--7--5/7\5-||
||-5--5--5--5-5-5-5--5--5--3/5\3-||
|           . . .                 |
| Lead                            |
||-------------------------------||
||-------------------------------||
||-------------------------------||
||-------------------------------||
||-7--7---3-5-5br-7--7-7-5-3-5---||
||-5--5-5---------5--5---------3-||
        .

Riff A (1:53)
  Rhythm                4x
||------------------------||
||*----------------------*||
||------------------------||
||------------------------||
||*-2--2-5--7----5/7\5/7-*||
||--0--0-3--5----3/5\3/5--||
|                          |
| Lead                     |
||------------------------||
||*--/12-/17--12~-\------*||
||------------------------||
||------------------------||
||*----------------------*||
||------------------------||


Riff C (2:08)
  Rhythm
||--------------------------||
||--------------------------||
||--------------------------||
||--------------------------||
||-9--9--9--9-9--7--7-\5-/7-||
||-7--7--7--7-7--5--5-\3-/5-||


Riff A (2:16) Solo Section
  Rhythm                4x
||------------------------||
||*----------------------*||
||------------------------||
||------------------------||
||*-2--2-5--7----5/7\5/7-*||
||--0--0-3--5----3/5\3/5--||


Riff B (2:30)
  Rhythm
||-------------------------------||
||-------------------------------||
||-------------------------------||
||-------------------------------||
||-7--7--7--7-7-7-7--7--7--5/7\5-||
||-5--5--5--5-5-5-5--5--5--3/5\3-||


Riff A (2:38)
  Rhythm                4x
||------------------------||
||*----------------------*||
||------------------------||
||------------------------||
||*-2--2-5--7----5/7\5/7-*||
||--0--0-3--5----3/5\3/5--||


Riff C (2:52)
  Rhythm
||--------------------------||
||--------------------------||
||--------------------------||
||--------------------------||
||-9--9--9--9-9--7--7-\5-/7-||
||-7--7--7--7-7--5--5-\3-/5-||


Riff A (3:00)
  Rhythm                4x
||------------------------||
||*----------------------*||
||------------------------||
||------------------------||
||*-2--2-5--7----5/7\5/7-*||
||--0--0-3--5----3/5\3/5--||


Riff C (3:15)
  Rhythm
||--------------------------||
||--------------------------||
||--------------------------||
||--------------------------||
||-9--9--9--9-9--7--7-\5-/7-||
||-7--7--7--7-7--5--5-\3-/5-||


Riff A (3:22)
  Rhythm                4x
||------------------------||
||*----------------------*||
||------------------------||
||------------------------||
||*-2--2-5--7----5/7\5/7-*||
||--0--0-3--5----3/5\3/5--||
|                          |
| Lead                     |
||------------------------||
||*--/12-/15b-12~-\------*||
||------------------------||
||------------------------||
||*----------------------*||
||------------------------||


Riff B (3:37)
  Rhythm
||-------------------------------||
||-------------------------------||
||-------------------------------||
||-------------------------------||
||-7--7--7--7-7-7-7--7--7--5/7\5-||
||-5--5--5--5-5-5-5--5--5--3/5\3-||


Riff A (3:45)
  Rhythm                4x
||------------------------||
||*----------------------*||
||------------------------||
||------------------------||
||*-2--2-5--7----5/7\5/7-*||
||--0--0-3--5----3/5\3/5--||
|                          |
| Lead                     |
||------------------------||
||*--/12-/17--12~-\------*||
||------------------------||
||------------------------||
||*----------------------*||
||------------------------||


Riff B (3:59)
  Rhythm
||-------------------------------||
||-------------------------------||
||-------------------------------||
||-------------------------------||
||-7--7--7--7-7-7-7--7--7--5/7\5-||
||-5--5--5--5-5-5-5--5--5--3/5\3-||


Riff A (4:06)
  Rhythm                4x
||------------------------||
||*----------------------*||
||------------------------||
||------------------------||
||*-2--2-5--7----5/7\5/7-*||
||--0--0-3--5----3/5\3/5--||
|                          |
| Lead                     |
||------------------------||
||*--/12-/17--12~-\------*||
||------------------------||
||------------------------||
||*----------------------*||
||------------------------||


Riff C (4:21)
  Rhythm
||--------------------------||
||--------------------------||
||--------------------------||
||--------------------------||
||-9--9--9--9-9--7--7-\5-/7-||
||-7--7--7--7-7--5--5-\3-/5-||


Outro (4:29)
  Rhythm
||------------------------------------||
||------------------------------------||
||------------------------------------||
||-2~------------------------------2--||
||-2~------------------------------2--||
||-0~------------------------------0--||
|                                      |
| Lead                                 |
||-15p12p0-15p12p0-15p12p0-15p12p0----||
||------------------------------------||
||------------------------------------||
||------------------------------------||
||------------------------------------||
||------------------------------------||
Добавлено: 02.06.2013
Другие материалы по этой песне:
  • Аккорды и текст

Страница создана 02.06.2013
http://primanota.ru/bongzilla/amerijuanican-album-chords.htm
Привет, Гость.
Предлагаем пройти революционный курс по гитаре.
Подарок от PrimaNota.Ru, забирай!