PrimaNota.ru - самый крупный в мире бесплатный архив песенных текстов, аккордов, табулатур и нот


Bongzilla - 666lb. Bongsession - таба, видео

Регистрация Запомнить меня
Войти через:  Facebook Google Twitter Vk Yandex Mail.ru

Bongzilla - 666lb. Bongsession - таба, видео

Печатать
Просмотров: 108
Bongzilla - 666lb. Bongsession
Gateway (2002)
Tabbed By ruker (Varuker@gmail.com)
Tuned Down 2.5 Step BEADF#B

-------------
Key:
-------------
. Palm Mute
~ Vibrato
h Hammer-On
p Pull-Off
b Bend
r Release
/ Slide Up
\ Slide Down
-------------



Intro (0:00)                                                  6x
||--------------------------------------------------------------||
||*------------------------------------------------------------*||
||--------------------------------------------------------------||
||--------------------------------------------------------------||
||*-7----5-7----5-7--5-7--/10--10--7----5-7----5-7--5-7--5--5--*||
||--------------------------------------------------------------||



Riff A (1:42)                                                 4x
||--------------------------------------------------------------||
||*------------------------------------------------------------*||
||--------------------------------------------------------------||
||--9----7-9----7-9--7-9--/12--12--9----7-9----7-9--7-9--7--7---||
||*-7----5-7----5-7--5-7--/10--10--7----5-7----5-7--5-7--5--5--*||
||--------------------------------------------------------------||



Riff B (2:32)  
||------------------------------------------------------|
||*-----------------------------------------------------|
||------------------------------------------------------|
||--9-9-9-9-7-7-9-9-9-9-7-7-9-\7-9-\7/12-12-12-12-12-12-|
||*-7-7-7-7-5-5-7-7-7-7-5-5-7-\5-7-\5/10-10-10-10-10-10-|
||------------------------------------------------------|
            . .         . .    .    .
                                               4x
|------------------------------------------------||
|-----------------------------------------------*||
|------------------------------------------------||
|-9-9-9-9-7-7-9-9-9-9-7-7-9-\7-9--\-7-7-7-7-7-7--||
|-7-7-7-7-5-5-7-7-7-7-5-5-7-\5-7--\-5-5-5-5-5-5-*||
|------------------------------------------------||
          . .         . .    .


Fill (3:34)
||--------------||
||--------------||
||--------------||
||-4------------||
||-2----5--2----||
||------3--0----||



Intro (3:38) 6x
||--------------------------------------------------------------||
||*------------------------------------------------------------*||
||--------------------------------------------------------------||
||--------------------------------------------------------------||
||*-7----5-7----5-7--5-7--/10--10--7----5-7----5-7--5-7--5--5--*||
||--------------------------------------------------------------||



Riff B (4:27) 4x
||------------------------------------------------------|
||*-----------------------------------------------------|
||------------------------------------------------------|
||--9-9-9-9-7-7-9-9-9-9-7-7-9-\7-9-\7/12-12-12-12-12-12-|
||*-7-7-7-7-5-5-7-7-7-7-5-5-7-\5-7-\5/10-10-10-10-10-10-|
||------------------------------------------------------|
            . .         . .    .    .
                                               4x
|------------------------------------------------||
|-----------------------------------------------*||
|------------------------------------------------||
|-9-9-9-9-7-7-9-9-9-9-7-7-9-\7-9--\-7-7-7-7-7-7--||
|-7-7-7-7-5-5-7-7-7-7-5-5-7-\5-7--\-5-5-5-5-5-5-*||
|------------------------------------------------||
          . .         . .    .


Fill (5:27)     4x
||----------------||
||*--------------*||
||----------------||
||--4-------------||
||*-2----5--2----*||
||-------3--0-----||



Riff C (5:46) 8x
||-------------------------------||
||*-----------------------------*||
||-------------------------------||
||-------------------------------||
||*-3------4------5------/7-7-7-*||
||--1--0-0-2--0-0-3--0-0-/5-5-5--||
       . .    . .    . .


Riff D (6:13) 5x
||------------------------------------------------------------||
||*----------------------------------------------------------*||
||------------------------------------------------------------||
||------------------------------------------------------------||
||*-2--2--------------2--2--2-2-2-7--2--2--------2--5--7--7--*||
||--0--0--3-5-5-3-5-5-0--0--0-0-0-5--0--0--5-3-0-0--3--5--5---||
                            . . .              .


Outro (7:06)                                                        3x
||--------------------------------------------------------------------||
||*------------------------------------------------------------------*||
||--------------------------------------------------------------------||
||--------------------------------------------------------------------||
||*-2---2---5-/7-5-/7-2---2---2-2-2-7--2---2---7-5---2---5---7---7---*||
||--0---0---3-/5-3-/5-0---0---0-0-0-5--0---0---5-3-0-0---3---5---5----||
                              . . .                .
Добавлено: 26.11.2013
Другие материалы по этой песне:
  • Аккорды и текст

Страница создана 26.11.2013
http://primanota.ru/bongzilla/666lb-bongsession-chords.htm
Привет, Гость.
Предлагаем пройти революционный курс по гитаре.
Подарок от PrimaNota.Ru, забирай!