PrimaNota.ru - самый крупный в мире бесплатный архив песенных текстов, аккордов, табулатур и нот


Boney M - Daddy Cool Bass - таба, видео

Регистрация Запомнить меня
Войти через:  Facebook Google Twitter Vk Yandex Mail.ru

Boney M - Daddy Cool Bass - таба, видео

Печатать
Просмотров: 383
The Best tabb (Daddy Cool) by Conrad Malicki

Bass Melody

E(1)|---------|---------|---------|---------|
B(2)|---------|---------|---------|---------|
G(3)|---------|---------|---------|---------|
D(4)|---------|---------|---------|---------|
A(5)|---------|---3-2-0-|---------|-------0-|
E(6)|-5-5-5-5-|-5-------|-3-3-3-3-|-3-0-3---|

Replay!

E(1)|---------|---------|---------|---------|
B(2)|---------|---------|---------|---------|
G(3)|---------|---------|---------|---------|
D(4)|---------|---------|---------|---------|
A(5)|---------|---3-2-0-|---------|-------0-|
E(6)|-5-5-5-5-|-5-------|-3-3-3-3-|-3-0-3---|

Contact: konrad1_12@tlen.pl

Добавлено: 09.05.2012
Другие материалы по этой песне:
  • Аккорды и текст

Страница создана 09.05.2012
http://primanota.ru/boney-m/daddy-cool-bass-chords.htm
Привет, Гость.
Предлагаем пройти революционный курс по гитаре.
Подарок от PrimaNota.Ru, забирай!