PrimaNota.ru - самый крупный в мире бесплатный архив песенных текстов, аккордов, табулатур и нот


Bones Chapel - Glimmer - таба, видео

Регистрация Запомнить меня
Войти через:  Facebook Google Twitter Vk Yandex Mail.ru

Bones Chapel - Glimmer - таба, видео

Печатать
Просмотров: 75
		   Author/Artist: Bones Chapel
Title: Glimmer
Album: Destroyer
Transcribed by: Jason Brown
Email: jason@boneschapel.com
Glimmer--by Bones Chapel

This is the most acurate transcription of Glimmer.  Hope you enjoy and 
e-mail me if you have any questions----Jason

-|------------------------------------------------------------------------|---
-|------------------------------------------------------------------------|---
-|***************************************---------------------------------|---
-|*2------------------2---------------2-*------2--------2--------2-----2--|---
-|*2----2-3-2---2-1-5-2---2-3-2-2-6-5-2-*----5-2------5-2------5-2---5-2--|---
-|*0------------3-2-3-0---------3-7-3-0-*----3-0------3-0------3-0---3-0--|---
      gtr 1      intro    (* = repeat)

-|------------------------------------------------------------------------|---
-|------------------------------------------------------------------------|---
-|------------------------------------------------------------------------|---
-|-2------------------2---------------2--------2--------2--------2-----2--|---
-|-2----------------5-2-----------6-5-2------5-2------5-2------5-2---5-2--|---
-|-0----------------3-0-----------7-3-0------3-0------3-0------3-0---3-0--|---
     gtr 2

-|--------------------------------------------------------------------------|-
-|--------------------------------------------------------------------------|-
-|--------------------------------------------------------------------------|-
-|------------------------2------------------------2-----------------------2|-
-|-2-3-2-3-2----2---1-2-1-2--2-3-2-3-2---2---1-2-1-2-2-3-2-3-2---2---1-2-1-2|-
-|-----------0-3-3-2------0-----------0-3-3-2------0----------0-3-3-2------0|-
    gtr 1

-|--------------------------------------------------------------------------|-
-|--------------------------------------------------------------------------|-
-|--------------------------------------------------------------------------|-
-|--------------------------2------------------------2---------------------2|-
-|----------------------5---2--------------------5---2-----------------5---2|-
-|--------------------0-3-0-0------------------0-3-0-0---------------0-3-0-0|-
    gtr 2

-|--------------------------|-----------------------------------------------|-
-|--------------------------|-----------------------------------------------|-
-|--------------------------|-----------------------------------------------|-
-|--------------------------|-----------------------------------------------|-
-|-2-3-2-3-2--2-2-2/6-6-6---|-----------------------------------------------|-
-|----------0-3-3-3/7-7-7---|-----------------------------------------------|-
    gtr 1

-|--------------------------|-----------------------------------------------|-
-|--------------------------|-----------------------------------------------|-
-|--------------------------|-----------------------------------------------|-
-|----------------------2---|-----------------------------------------------|-
-|------------------5---2---|-----------------------------------------------|-
-|----------------0-3-0-0---|-----------------------------------------------|-
   gtr 2           end of intro

-|--------------------------------------------------------------------------|-
-|--------------------------------------------------------------------------|-
-|--------------------------------------------------------------------------|-
-|--------------------------------------------------------------------------|-
-|-2-2-3-2-3-2-----2-2--1-2-1-------------2-2-3-2-3-2-----2-2--1-2-1--------|-
-|-0-----------0-3--3---------------------0-----------0-3--3----------------|-
   verse 1  gtr 1 & 2

-|--------------------------------------------------------------------------|-
-|--------------------------------------------------------------------------|-
-|--------------------------------------------------------------------------|-
-|--------------------------------------------------------------------------|-
-|-2-2-3-2-3-2-----2-2--1-2-1-------------2-2-3-2-3-2-----2-2--1-2-1--------|-
-|-0-----------0-3--3---------------------0-----------0-3--3----------------|-
   "Don't take away....."

-|--------------------------------------------------------------------------|-
-|--------------------------------------------------------------------------|-
-|--------------------------------------------------------------------------|-
-|--------------------------------------------------------------------------|-
-|-2-2-3-2-3-2-----2-2--1-2-1-------------2-2-3-2-3-2---2-x-x-1-1-----------|-
-|-0-----------0-3--3---------------------0-----------0-3-x-x-2-2-----------|-


-|--------------------------------------------------------------------------|-
-|--------------------------------------------------------------------------|-
-|--------------------------------------------------------------------------|-
-|-2------------------------------2-----------------------------------2-----|-
-|-2--x-x--5-5-5-5--x-4-x-4---4---2-------x-x--5-5-5-5--x-4-x-4---4---2-----|-
-|-0--x-x--3-3-3-3--x-2-x-2---2-0-0-------x-x--3-3-3-3--x-2-x-2---2-0-0-----|-
  (chorus)

-|--------------------------------------------------------------------------|-
-|--------------------------------------------------------------------------|-
-|--------------------------------------------------------------------------|-
-|---------------------------2----------------------------------------2-----|-
-|-x-x-5-5-5-5--x-4-x-4--4---2------------x-x--5-5-5-5--x-4-x-4---4---2-----|-
-|-x-x-3-3-3-3--x-2-x-2--2-0-0------------x-x--3-3-3-3--x-2-x-2---2-0-0-----|-
   " Lean me back in......."

-|--------------------------------------------------------------------------|-
-|--------------------------------------------------------------------------|-
-|--------------------------------------------------------------------------|-
-|-2--------------------------------------2---------------------------------|-
-|-2-x-x-5-x-x-7-7-x-8--8-8-x-------------2-x-x-5-x-x-7-7-x-8--8-8-x--------|-
-|-0-x-x-3-x-x-5-5-x-6--6-6-x-------------0-x-x-3-x-x-5-5-x-6--6-6-x--------|-
  (gtr 1 plays fill 1)

-|--------------------------------------------------------------------------|-
-|--------------------------------------------------------------------------|-
-|--------------------------------------------------------------------------|-
-|-2--------------------------------------2--------------------2------------|-
-|-2-x-x-5-x-x-7-7-x-8--8-8-x-------------2-x-x-5-x-x-7--------2------------|-
-|-0-x-x-3-x-x-5-5-x-6--6-6-x-------------0-x-x-3-x-x-5--------0------------|-


-|--------------------------------------------------------------------------|-
-|--------------------------------------------------------------------------|-
-|--------------------------------------------------------------------------|-
-|-----------------------2--------------------------------------------------|-
-|-2-3-2-3-2---2---1-2-1-2--2-3-2-3-2--2-2-2/6-6-6--------------------------|-
-|----------0-3-3-2------0-----------0-3-3-3/7-7-7--------------------------|-
   gtr 1

-|--------------------------------------------------------------------------|-
-|--------------------------------------------------------------------------|-
-|--------------------------------------------------------------------------|-
-|-----------------------2--------------------------------------------------|-
-|-------------------5---2---------------------6-6--------------------------|-
-|-----------------0-3-0-0---------------------7-7--------------------------|-
   gtr 2

-|--------------------------------------------------------------------------|-
-|--------------------------------------------------------------------------|-
-|--------------------------------------------------------------------------|-
-|--------------------------------------------------------------------------|-
-|-2-2-3-2-3-2-----2-2--1-2-1--------------2-2-3-2-3-2-----2-2--1-2-1-------|-
-|-0-----------0-3--3----------------------0-----------0-3--3---------------|-
   verse 2   gtr 1 & 2

-|--------------------------------------------------------------------------|-
-|--------------------------------------------------------------------------|-
-|--------------------------------------------------------------------------|-
-|--------------------------------------------------------------------------|-
-|-2-2-3-2-3-2-----2-2--1-2-1--------------2-2-3-2-3-2-----2-2--1-2-1-------|-
-|-0-----------0-3--3----------------------0-----------0-3--3---------------|-
   "Now that I'm back......"

-|--------------------------------------------------------------------------|-
-|--------------------------------------------------------------------------|-
-|--------------------------------------------------------------------------|-
-|--------------------------------------------------------------------------|-
-|-2-2-3-2-3-2-----2-2--1-2-1--------------2-2-3-2-3-2---2-x-x-1-1----------|-
-|-0-----------0-3--3----------------------0-----------0-3-x-x-2-2----------|-


-|--------------------------------------------------------------------------|-
-|--------------------------------------------------------------------------|-
-|--------------------------------------------------------------------------|-
-|-2-----------------------------2-----------------------------------2------|-
-|-2-x-x--5-5-5-5--x-4-x-4---4---2-------x-x--5-5-5-5--x-4-x-4---4---2------|-
-|-0-x-x--3-3-3-3--x-2-x-2---2-0-0-------x-x--3-3-3-3--x-2-x-2---2-0-0------|-
   (Chorus)

-|--------------------------------------------------------------------------|-
-|--------------------------------------------------------------------------|-
-|--------------------------------------------------------------------------|-
-|---------------------------2--------------------------------------2-------|-
-|-x-x-5-5-5-5--x-4-x-4--4---2-----------x-x-5-5-5-5--x-4-x-4---4---2-------|-
-|-x-x-3-3-3-3--x-2-x-2--2-0-0-----------x-x-3-3-3-3--x-2-x-2---2-0-0-------|-
   "Lean me back in........"

-|--------------------------------------------------------------------------|-
-|--------------------------------------------------------------------------|-
-|--------------------------------------------------------------------------|-
-|-2-------------------------------------2----------------------------------|-
-|-2-x-x-5-x-x-7-7-x-8--8-8-x------------2-x-x-5-x-x-7-7-x-8--8-8-x---------|-
-|-0-x-x-3-x-x-5-5-x-6--6-6-x------------0-x-x-3-x-x-5-5-x-6--6-6-x---------|-
   (gtr 1 plays fill 1)

-|--------------------------------------------------------------------------|-
-|--------------------------------------------------------------------------|-
-|--------------------------------------------------------------------------|-
-|-2-------------------------------------2----------------------------------|-
-|-2-x-x-5-x-x-7-7-x-8--8-8-x------------2-x-x-5-x-x-7-7-x-8--8-8-x---------|-
-|-0-x-x-3-x-x-5-5-x-6--6-6-x------------0-x-x-3-x-x-5-5-x-6--6-6-x---------|-
                                        (gtr 2 play this riff 12 times)

-|--------------------------------------------------------------------------|-
-|--------------------------------------------------------------------------|-
-|-3-4-4-4-3-4-4-4-3-4-4/7b---3-4-4-4-3-4-4-4-3-4-4/9b-9b--3-4-4-4-3-4-4-4--|-
-|--------------------------------------------------------------------------|-
-|--------------------------------------------------------------------------|-
-|--------------------------------------------------------------------------|-
  solo- gtr 2

-|-------------------------------------------------------12h15-12h15-12h15--|-
-|--------------------------------------------------------------------------|-
-|-3-4/12b--12-12-12-12-9-9-------------------------------------------------|-
-|--------------------------12-12-12-9-9--12-12/14-14-14--------------------|-
-|--------------------------------------------------------------------------|-
-|--------------------------------------------------------------------------|-


-|-12h15-12h15-12h15-12h15-12h15-12h15-12h15-12h15-12h15-12h15-12h15-12h15--|-
-|--------------------------------------------------------------------------|-
-|--------------------------------------------------------------------------|-
-|--------------------------------------------------------------------------|-
-|--------------------------------------------------------------------------|-
-|--------------------------------------------------------------------------|-


-|-------------------------------------------------------------------12-14--|-
-|----------------------------------------------------------12-14-15--------|-
-|-------------------------------------------------12-14-15-----------------|-
-|-12-14-14-14-12-14-14-14-12-14-14-14-12-14-14-14--------------------------|-
-|--------------------------------------------------------------------------|-
-|--------------------------------------------------------------------------|-


-|-15-12h15-12h15-12h15-12h15-15b--15b-15b-15b-12-12------------------------|-
-|---------------------------------------------------14bp-12h14-12----------|-
-|-----------------------------------------------------------------14-12----|-
-|--------------------------------------------------------------------------|-
-|--------------------------------------------------------------------------|-
-|--------------------------------------------------------------------------|-


-|----------------------------------------------------12h14-15b-15b-15b-15b-|-
-|--------------------------------------------------------------------------|-
-|-12h14-----------------------------------12-14-14b------------------------|-
-|-------14-12-14----------------12--14-14----------------------------------|-
-|----------------12-12-14-14-14--------------------------------------------|-
-|--------------------------------------------------------------------------|-


-|-15b-12h15-12h15-12h15-12h15-12h15-12h15-12h15----------------------------|-
-|--------------------------------------------------------------------------|-
-|------------------------------------------------12b-----------------------|-
-|----------------------------------------------------14b-------------------|-
-|--------------------------------------------------------------------------|-
-|--------------------------------------------------------------------------|-


-|--------------------------------------------------------------------------|-
-|--------------------------------------------------------------------------|-
-|--------------------------------------------------------------------------|-
-|-2---------------------2--------------------------------------------------|-
-|-2-x-x-5-x-x-7---------2--------------------------------------------------|-
-|-0-x-x-3-x-x-5---------0--------------------------------------------------|-
   guitar 1 & 2

-|--------------------------------------------------------------------------|-
-|--------------------------------------------------------------------------|-
-|--------------------------------------------------------------------------|-
-|-------------------------2--------------------------2---------------------|-
-|-2-3-2-3-2----2----1-2-1-2--2-3-2-3-2----2----1-2-1-2-2-3-2-3-2---2---1-2-|-
-|-----------0-3-3-2-------0------------0-3-3-2-------0----------0-3-3-2----|-
   gtr 1

-|--------------------------------------------------------------------------|-
-|--------------------------------------------------------------------------|-
-|--------------------------------------------------------------------------|-
-|---------------------------2--------------------------2------------------2|-
-|-----------------------5---2----------------------5---2--------------5---2|-
-|---------------------0-3-0-0--------------------0-3-0-0------------0-3-0-0|-
                                            both gtrs. on last note

-|--------------------------------------------------------------------------|-
-|--------------------------------------------------------------------------|-
-|--------------------------------------------------------------------------|-
-|--------------------------------------------------------------------------|-
-|-2-3-2-3-2---2-2-2/6-6-6--------------------------------------------------|-
-|-----------0-3-3-3/7-7-7--------------------------------------------------|-
   gtr 1

-|--------------------------------------------------------------------------|-
-|--------------------------------------------------------------------------|-
-|--------------------------------------------------------------------------|-
-|----------------------2---------------------------------------------------|-
-|------------------5---2---------------------------------------------------|-
-|----------------0-3-0-0---------------------------------------------------|-
   gtr 2

-|--------------------------------------------------------------------------|-
-|--------------------------------------------------------------------------|-
-|--------------------------------------------------------------------------|-
-|--------------------------------------------------------------------------|-
-|-2-2-3-2-3-2-----2-2-1-2-1----------------2-2-3-2-3-2-----2-2--1-2-1------|-
-|-0-----------0-3--3-----------------------0-----------0-3--3--------------|-
   verse 3 gtr 1 & 2 "The waiting game........"

-|--------------------------------------------------------------------------|-
-|--------------------------------------------------------------------------|-
-|--------------------------------------------------------------------------|-
-|--------------------------------------------------------------------------|-
-|-2-2-3-2-3-2-----2-2-1-2-1----------------2-2-3-2-3-2---2-x-x-1-1---------|-
-|-0-----------0-3--3-----------------------0-----------0-3-x-x-2-2---------|-


-|--------------------------------------------------------------------------|-
-|--------------------------------------------------------------------------|-
-|--------------------------------------------------------------------------|-
-|-2------------------------------2-----------------------------------2-----|-
-|-2--x-x--5-5-5-5--x-4-x-4---4---2--------x-x-5-5-5-5--x-4-x-4---4---2-----|-
-|-0--x-x--3-3-3-3--x-2-x-2---2-0-0--------x-x-3-3-3-3--x-2-x-2---2-0-0-----|-
  (chorus)

-|--------------------------------------------------------------------------|-
-|--------------------------------------------------------------------------|-
-|--------------------------------------------------------------------------|-
-|---------------------------2----------------------------------------2-----|-
-|-x-x-5-5-5-5--x-4-x-4--4---2-------------x-x-5-5-5-5--x-4-x-4---4---2-----|-
-|-x-x-3-3-3-3--x-2-x-2--2-0-0-------------x-x-3-3-3-3--x-2-x-2---2-0-0-----|-
   "Lean me back in........"

-|--------------------------------------------------------------------------|-
-|--------------------------------------------------------------------------|-
-|--------------------------------------------------------------------------|-
-|-2---------------------------------------2--------------------------------|-
-|-2-x-x-5-x-x-7-7-x-8--8-8-x--------------2-x-x-5-x-x-7-7-x-8--8-8-x-------|-
-|-0-x-x-3-x-x-5-5-x-6--6-6-x--------------0-x-x-3-x-x-5-5-x-6--6-6-x-------|-
   (gtr 1 plays fill 1)

-|--------------------------------------------------------------------------|-
-|--------------------------------------------------------------------------|-
-|--------------------------------------------------------------------------|-
-|-2---------------------------------------2----------------------2---------|-
-|-2-x-x-5-x-x-7-7-x-8--8-8-x--------------2-x-x-5-x-x-7----------2---------|-
-|-0-x-x-3-x-x-5-5-x-6--6-6-x--------------0-x-x-3-x-x-5----------0---------|-


-|--------------------------------------------------------------------------|-
-|--------------------------------------------------------------------------|-
-|--------------------------------------------------------------------------|-
-|---2--------2--------2--------2-------------------------------------------|-
-|-5-2------5-2------5-2------5-2-------------------------------------------|-
-|-3-0------3-0------3-0------3-0-------------------------------------------|-


-|--------------------------------------------------------------------------|-
-|--------------------------------------------------------------------------|-
-|--------------------------------------------------------------------------|-
-|--------------------------------------------2-----------------------------|-
-|-2-3-2-3-2-----2---2--1-2-1-----------------2-----------------------------|-
-|-----------0-3---3--------------------------0-----------------------------|-
   gtr 1

-|--------------------------------------------------------------------------|-
-|--------------------------------------------------------------------------|-
-|--------------------------------------------------------------------------|-
-|-------------------------2------------------2-----------------------------|-
-|---------------------5---2------------------2-----------------------------|-
-|-------------------0-3-0-0------------------0-----------------------------|-
   gtr 2                                                             end

-|----------------------------------------------------------------------------
-|----------------------------------------------------------------------------
-|----------------------------------------------------------------------------
-|--------------10/3----------------------------------------------------------
-|----------------------------------------------------------------------------
-|----------------------------------------------------------------------------
     fill 1
     
Добавлено: 19.11.2013
Другие материалы по этой песне:
  • Аккорды и текст

Страница создана 19.11.2013
http://primanota.ru/bones-chapel/glimmer-chords.htm
Привет, Гость.
Предлагаем пройти революционный курс по гитаре.
Подарок от PrimaNota.Ru, забирай!