PrimaNota.ru - самый крупный в мире бесплатный архив песенных текстов, аккордов, табулатур и нот


Bone Thugs N Harmony - Hell Sent - текст песни, бас-таба, видео

Регистрация Запомнить меня
Войти через:  Facebook Google Twitter Vk Yandex Mail.ru

Bone Thugs N Harmony - Hell Sent - текст песни, бас-таба, видео

Печатать
Просмотров: 89
Tabbed by: 6METAL6BASSIST6
E-mail: petergriffinav@gmail.com

Tuning: EADG

Repeated through the verses.

G|--------------------------------10------------------------------|
D|----------------10----------------------10----------------------|
A|8-------11--------------------------------------11------10------|
E|----------------------------------------------------------------|

G|--------------------------------9-------------------------------|
D|----------------10----------------------10------8---------------|
A|7-------10----------------------------------------------11------|
E|----------------------------------------------------------------|
Добавлено: 11.10.2015
Другие материалы по этой песне:
  • Аккорды и текст

Страница создана 28.03.2012
http://primanota.ru/bone-thugs-n-harmony/hell-sent-chords.htm
Привет, Гость.
Предлагаем пройти революционный курс по гитаре.
Подарок от PrimaNota.Ru, забирай!