PrimaNota.ru - самый крупный в мире бесплатный архив песенных текстов, аккордов, табулатур и нот


Bonded By Blood - Teenage Mutant Ninja Turtles Theme - таба, видео

Регистрация Запомнить меня
Войти через:  Facebook Google Twitter Vk Yandex Mail.ru

Bonded By Blood - Teenage Mutant Ninja Turtles Theme - таба, видео

Печатать
Просмотров: 191
-----------------------------------------------------------------------------
              Teenage Mutant Ninja Turtles - Bonded By Blood
-----------------------------------------------------------------------------
Tabbed by: Ian Revallo
Email: ijrrevallo@yahoo.com

Tuning: Eb Ab Db Gb Bb Eb

0:00
"HEY WHAT DO YOU GUYS WANT TO EAT?
"PIZZZZAAAAAAAAA"
"Kowbungga dude."


0:05
e|--------------------------------------------------------------------------|
B|--------------------------------------------------------------------------|
G|--------------------------------------------------------------------------|
D|-6-------------6---6-6--9-------------9---9-9--11------------14----14-14--|
A|-4-4-4-4-4-4-4-4-4-4-4--7-7-7-7-7-7-7-7-7-7-7--9-9-9-9-9-9-9-12-12-12-12--|
E|---.-.-.-.-.-.---.--------.-.-.-.-.-.---.--------.-.-.-.-.-.----..--------|

e|-----------------------|
B|-----------------------|
G|-----------------------|
D|-6-----4-6--6-4-6------|
A|-4-4-4-2-4--4-2-4------|
E|---.-.------.-.--------|

e|--------------------------------------------------------------------------|
B|--------------------------------------------------------------------------|
G|--------------------------------------------------------------------------|
D|-6-------------6---6-6--9-------------9---9-9--11------------14----14-14--|
A|-4-4-4-4-4-4-4-4-4-4-4--7-7-7-7-7-7-7-7-7-7-7--9-9-9-9-9-9-9-12-12-12-12--|
E|---.-.-.-.-.-.---.--------.-.-.-.-.-.---.--------.-.-.-.-.-.----..--------|

e|-----------------------|
B|-----------------------|
G|-----------------------|
D|-6-----4-6--6-4-6------|
A|-4-4-4-2-4--4-2-4------|
E|---.-.------.-.--------|

0:17
e|-----------------------------------------------------------------|
B|-----------------------------------------------------------------|
G|-----------------------------------------------------------------|
D|-9--------------8------7------6---------6---------6--------------|
A|-7-7-7-7-7-7-7--6-6-6--5-5-5--4-4-4-4-4-4-4-4-4-4-4--------------|
E|---.-.-.-.-.-.----.-.----.-.----.-.-.-.---.-.-.-.----------------|



e|-----------------------------------------------------------------|
B|-----------------------------------------------------------------|
G|-----------------------------------------------------------------|
D|-9--------------8------7------6---------6---------6--------------|
A|-7-7-7-7-7-7-7--6-6-6--5-5-5--4-4-4-4-4-4-4-4-4-4-4--------------|
E|---.-.-.-.-.-.----.-.----.-.----.-.-.-.---.-.-.-.----------------|

0:24
e|------------------------------------------------------------------|
B|------------------------------------------------------------------|
G|------------------------------------------------------------------|
D|------------------------------------------------------------------|
A|-4--------------6--------------7--------------9-------------------|
E|-2-2-2-2-2-2-2--4-4-4-4-4-4-4--5-5-5-5-5-5-5--7-7-7-7-7-7-7-------|
     . . . . . .    . . . . . .    . . . . . .    . . . . . .

e|--------------------------------------------------------------------------|
B|--------------------------------------------------------------------------|
G|--------------------------------------------------------------------------|
D|-6-------------6---6-6--6-------------6---6-6-----------------------------|
A|-4-4-4-4-4-4-4-4-4-4-4--4-4-4-4-4-4-4-4-4-4-4-----------------------------|
E|---.-.-.-.-.-.---.--------.-.-.-.-.-.---.---------------------------------|


e|-----------------------------------------------------------------|
B|-----------------------------------------------------------------|
G|-----------------------------------------------------------------|
D|-9--------------8------7------6---------6---------6--------------|
A|-7-7-7-7-7-7-7--6-6-6--5-5-5--4-4-4-4-4-4-4-4-4-4-4--------------|
E|---.-.-.-.-.-.----.-.----.-.----.-.-.-.---.-.-.-.----------------|


e|-----------------------------------------------------------------|
B|-----------------------------------------------------------------|
G|-----------------------------------------------------------------|
D|-9--------------8------7------6---------6---------6--------------|
A|-7-7-7-7-7-7-7--6-6-6--5-5-5--4-4-4-4-4-4-4-4-4-4-4--------------|
E|---.-.-.-.-.-.----.-.----.-.----.-.-.-.---.-.-.-.----------------|


e|------------------------------------------------------------------|
B|------------------------------------------------------------------|
G|------------------------------------------------------------------|
D|------------------------------------------------------------------|
A|-4--------------6--------------7--------------9-------------------|
E|-2-2-2-2-2-2-2--4-4-4-4-4-4-4--5-5-5-5-5-5-5--7-7-7-7-7-7-7-------|
     . . . . . .    . . . . . .    . . . . . .    . . . . . .

e|--------------------------------------------------------------------------|
B|--------------------------------------------------------------------------|
G|--------------------------------------------------------------------------|
D|-6-------------6---6-6--9-------------9---9-9--11------------14----14-14--|
A|-4-4-4-4-4-4-4-4-4-4-4--7-7-7-7-7-7-7-7-7-7-7--9-9-9-9-9-9-9-12-12-12-12--|
E|---.-.-.-.-.-.---.--------.-.-.-.-.-.---.--------.-.-.-.-.-.----..--------|

e|-----------------------|
B|-----------------------|
G|-----------------------|
D|-6-----4-6--6-4-6------|
A|-4-4-4-2-4--4-2-4------|
E|---.-.------.-.--------|


*I DO NOT KNOW THE SOLO, BUT HERE IS THE RHYTHM. SORRY.*

0:46
e|--------------------------------------------------------------------------|
B|--------------------------------------------------------------------------|
G|--------------------------------------------------------------------------|
D|-6-------------6---6-6--9-------------9---9-9--11------------14----14-14--|
A|-4-4-4-4-4-4-4-4-4-4-4--7-7-7-7-7-7-7-7-7-7-7--9-9-9-9-9-9-9-12-12-12-12--|
E|---.-.-.-.-.-.---.--------.-.-.-.-.-.---.--------.-.-.-.-.-.----..--------|


e|-----------------------|
B|-----------------------|
G|-----------------------|
D|-6-----4-6--6-4-6------|
A|-4-4-4-2-4--4-2-4------|
E|---.-.------.-.--------|



e|-----------------------------------------------------------------|
B|-----------------------------------------------------------------|
G|-----------------------------------------------------------------|
D|-9--------------8------7------6---------6---------6--------------|
A|-7-7-7-7-7-7-7--6-6-6--5-5-5--4-4-4-4-4-4-4-4-4-4-4--------------|
E|---.-.-.-.-.-.----.-.----.-.----.-.-.-.---.-.-.-.----------------|


e|-----------------------------------------------------------------|
B|-----------------------------------------------------------------|
G|-----------------------------------------------------------------|
D|-9--------------8------7------6---------6---------6--------------|
A|-7-7-7-7-7-7-7--6-6-6--5-5-5--4-4-4-4-4-4-4-4-4-4-4--------------|
E|---.-.-.-.-.-.----.-.----.-.----.-.-.-.---.-.-.-.----------------|

e|------------------------------------------------------------------|
B|------------------------------------------------------------------|
G|------------------------------------------------------------------|
D|------------------------------------------------------------------|
A|-4--------------6--------------7--------------9-------------------|
E|-2-2-2-2-2-2-2--4-4-4-4-4-4-4--5-5-5-5-5-5-5--7-7-7-7-7-7-7-------|
     . . . . . .    . . . . . .    . . . . . .    . . . . . .

e|--------------------------------------------------------------------------|
B|--------------------------------------------------------------------------|
G|--------------------------------------------------------------------------|
D|-6-------------6---6-6--9-------------9---9-9--11------------14----14-14--|
A|-4-4-4-4-4-4-4-4-4-4-4--7-7-7-7-7-7-7-7-7-7-7--9-9-9-9-9-9-9-12-12-12-12--|
E|---.-.-.-.-.-.---.--------.-.-.-.-.-.---.--------.-.-.-.-.-.----..--------|

e|-----------------------|
B|-----------------------|
G|-----------------------|
D|-6-----4-6--6-4-6------|
A|-4-4-4-2-4--4-2-4------|
E|---.-.------.-.--------|


"TOTALLY, DUDE"




************************************

. - Palm mute

************************************
Добавлено: 25.05.2012
Вам также может быть интересно:
Другие материалы по этой песне:

Страница создана 11.05.2012
http://primanota.ru/bonded-by-blood/teenage-mutant-ninja-turtles-theme-chords.htm
Привет, Гость.
Предлагаем пройти революционный курс по гитаре.
Подарок от PrimaNota.Ru, забирай!