PrimaNota.ru - самый крупный в мире бесплатный архив песенных текстов, аккордов, табулатур и нот


Bondan Prakoso - Expresikan - бас-таба, видео

Регистрация Запомнить меня
Войти через:  Facebook Google Twitter Vk Yandex Mail.ru

Bondan Prakoso - Expresikan - бас-таба, видео

Печатать
Просмотров: 123
                                  Expresikan                                    


                                                             Bondan Fade 2 Black
Bondan Prakoso



             Q    Q    Q    E  E     E  E  E   E  E  E  E   
G||-------|-----------------------|------------------------|
D||-------|-----------------------|------------------------|
A||-------|--7----L----L----L-----|--7--9-----10-----9--7--|
E||-------|--------------------8--|------------------------|


  Q    Q    Q    Q       Q    E  E  E  E  E     Q    Q    Q    Q     
----------------------|----------------------|----------------------|
----------------------|----------------------|----------------------|
--3----L----L----L----|--L----L--3--2-----0--|----------------------|
----------------------|----------------------|--3----L----L----L----|


  Q    Q    E  E  E     Q    Q    Q    Q       Q    Q    Q     
---------------------|----------------------|-----------------|
---------------------|----------------------|-----------------|
------------------0--|--2----L----L----L----|--L----L----L----|
--L----L----3--------|----------------------|-----------------|


  Q    Q    Q    E  E     E  E  E   E  E  E  E     Q    Q    Q    Q     
-----------------------|------------------------|----------------------|
-----------------------|------------------------|----------------------|
--7----L----L----L-----|--7--9-----10-----9--7--|--3----L----L----L----|
--------------------8--|------------------------|----------------------|


  E  E  E  E  Q    Q       Q    Q    Q    Q       E  E  E  E  Q    E   
------------------------|----------------------|----------------------|
------------------------|----------------------|----------------------|
--3--3-----3--2----0----|----------------------|--------------0----3--|
------------------------|--3----L----L----L----|--3--3-----3----------|


  Q    Q    Q    Q       E  Q    E  Q    E     Q    Q    Q    E  E   
----------------------|---------------------|-----------------------|
----------------------|---------------------|-----------------------|
--2----L----L----L----|--2--2----2----------|--7----L----L----L-----|
----------------------|-------------3----2--|--------------------8--|


  E  E  E   E  E  E  E     Q    Q    Q    Q       E  E  E  E  E   E   Q     
------------------------|----------------------|---------------------------|
------------------------|----------------------|---------------------------|
--7--9-----10-----9--7--|--3----L----L----L----|--3--3-----3--2--(0)--2----|
------------------------|----------------------|---------------------------|


  Q    Q    Q    Q       E  E  E  E  Q    E     Q    Q    Q    Q     
----------------------|----------------------|----------------------|
----------------------|----------------------|----------------------|
----------------------|--------------0----3--|--2----L----L----L----|
--3----L----L----L----|--3--3-----3----------|----------------------|


  E  Q    S S Q    Q       Q    Q    Q    E  E     E  E  E   E  E  E  E   
------------------------|-----------------------|------------------------|
------------------------|-----------------------|------------------------|
--2--2----2---5----5----|--7----L----L----L-----|--7--9-----10-----9--7--|
------------------------|--------------------8--|------------------------|


  Q    Q    Q    Q       E  E  E  E  E   E   E     Q    Q    Q    Q     
----------------------|-------------------------|----------------------|
----------------------|-------------------------|----------------------|
--3----L----L----L----|--3--3-----3--2--(0)--2--|----------------------|
----------------------|-------------------------|--3----L----L----L----|


  E  E  E  E  E   E   E     E  E  E  E  E  E  E  E     E  E  E  E  E   E  E   
-------------------------|--------------------------|------------------------|
-------------------------|--------------------------|------------------------|
--------------3-------3--|--2--L--L--L--3--L--L--L--|--5--7-----9-----10--9--|
--4--3-----3-----(0)-----|--------------------------|------------------------|


  Q     Q     Q    E  E     E  E  E   E  E  E  E  E     Q     Q     Q    Q     
-------------------------|---------------------------|------------------------|
-------------------------|---------------------------|------------------------|
--7----(0)----7----L-----|--7--9-----10-----9--7--0--|--3----(0)----3----0----|
----------------------8--|---------------------------|------------------------|


  E  Q    E  E  E  E  E     Q    E  E  Q    E  E     E  Q    Q    X E  E   
-------------------------|------------------------|-----------------------|
-------------------------|------------------------|-----------------------|
--3--3----3--2--0--2--0--|------------------------|-----------------0--3--|
-------------------------|--3-------0--3-------0--|--3--3----3------------|


  E  E  E  E  E  E  E  E     E  E  E  E  E   E  E     Q     Q     Q    E  E   
--------------------------|------------------------|-------------------------|
--------------------------|------------------------|-------------------------|
--2--L--L--L--3--L--L--L--|--5--7-----9-----10--9--|--7----(0)----7----L-----|
--------------------------|------------------------|----------------------8--|


  E  E  E   E  E  E  E  E     Q     Q     Q    Q       E  Q    E  E  E  E  E   
---------------------------|------------------------|-------------------------|
---------------------------|------------------------|-------------------------|
--7--9-----10-----9--7--0--|--3----(0)----3----0----|--3--3----3--2--0--2--0--|
---------------------------|------------------------|-------------------------|


  Q    E  E  Q    E  E     E  Q    Q    X E  E     E  E  E  E  E  E  E  E   
------------------------|-----------------------|--------------------------|
------------------------|-----------------------|--------------------------|
------------------------|-----------------0--3--|--2--L--L--L--3--L--L--L--|
--3-------0--3-------0--|--3--3----3------------|--------------------------|


  E  E  E  E  E   E  E     Q    Q    Q    E  E     E  E  E   E  E  E  E   
------------------------|-----------------------|------------------------|
------------------------|-----------------------|------------------------|
--5--7-----9-----10--9--|--7----L----L----L-----|--7--9-----10-----9--7--|
------------------------|--------------------8--|------------------------|


  Q    Q    Q    Q       E  E  E  E  Q    Q       Q    Q    Q    Q     
----------------------|------------------------|----------------------|
----------------------|------------------------|----------------------|
--3----L----L----L----|--3--3-----3--2----0----|----------------------|
----------------------|------------------------|--3----L----L----L----|


  E  E  E  E  Q    E     Q    Q    Q    Q       E  Q    E  Q    Q      
----------------------|----------------------|------------------------|
----------------------|----------------------|------------------------|
--------------0----3--|--2----L----L----L----|--2--2----2--5----5s----|
--3--3-----3----------|----------------------|------------------------|


  E  E  Q    Q    E     E  E  E   E  E  E  E     E  E  Q    Q    E   
---------------------|------------------------|---------------------|
---------------------|------------------------|---------------------|
--7--7--7---------7--|--7--9-----10-----9--7--|-----3--3---------3--|
-------------8-------|------------------------|-------------3-------|


  TP                                                                   
  E  Q    E  Q    Q       E  Q    E  Q    Q       E  E  E  E  Q    E   
-----------------------|-----------------------|----------------------|
-----------------------|-----------------------|----------------------|
--3--3----3--2----0----|--5--5----5------------|--------------0----3--|
-----------------------|-------------3----3----|--3--3-----3----------|


  E  S E  S S S E  S E  S E     E  S E  S S S E  S E  S E   
-----------------------------|-----------------------------|
--2----2----2----------------|--2----2----2---3----3----3--|
----------------3----3----3--|-----------------------------|
-----------------------------|-----------------------------|


  Q     Q     Q    E  E     E  E  E   E  E  E  E  E     Q     Q     Q    Q     
-------------------------|---------------------------|------------------------|
-------------------------|---------------------------|------------------------|
--7----(0)----7----L-----|--7--9-----10-----9--7--0--|--3----(0)----3----0----|
----------------------8--|---------------------------|------------------------|


  E  Q    E  E  E  E  E     Q    E  E  Q    E  E     E  Q    Q    X E  E   
-------------------------|------------------------|-----------------------|
-------------------------|------------------------|-----------------------|
--3--3----3--2--0--2--0--|------------------------|-----------------0--3--|
-------------------------|--3-------0--3-------0--|--3--3----3------------|


  E  E  E  E  E  E  E  E     E  E  E  E  E   E  E     Q     Q     Q    E  E   
--------------------------|------------------------|-------------------------|
--------------------------|------------------------|-------------------------|
--2--L--L--L--3--L--L--L--|--5--7-----9-----10--9--|--7----(0)----7----L-----|
--------------------------|------------------------|----------------------8--|


  E  E  E   E  E  E  E  E     Q     Q     Q    Q       E  Q    E  E  E  E  E   
---------------------------|------------------------|-------------------------|
---------------------------|------------------------|-------------------------|
--7--9-----10-----9--7--0--|--3----(0)----3----0----|--3--3----3--2--0--2--0--|
---------------------------|------------------------|-------------------------|


  Q    E  E  Q    E  E     E  Q    Q    X E  E     Q    Q    Q    Q     
------------------------|-----------------------|----------------------|
------------------------|-----------------------|----------------------|
------------------------|-----------------0--3--|--2----L----L----L----|
--3-------0--3-------0--|--3--3----3------------|----------------------|


  Q    Q    Q    Q       Q    Q    Q    Q       Q    Q    Q    Q     
----------------------|----------------------|----------------------|
----------------------|----------------------|----------------------|
--L----L----L----L----|--2----L----L----L----|--L----L----L----L----|
----------------------|----------------------|----------------------|


  Q    Q    Q    Q       Q    Q    Q    Q       Q    Q    Q    Q     
----------------------|----------------------|----------------------|
----------------------|----------------------|----------------------|
--2----L----L----L----|--L----L----L----L----|--2----L----2----L----|
----------------------|----------------------|----------------------|


  Q    Q    Q    Q       E  E  Q    E  E  E  E     E  E  E  E  E  E  E  E   
----------------------|-------------------------|--------------------------|
----------------------|--2-----2-------------4--|-----2--------------------|
--2----L----2----L----|----------------3--------|-----------------2--3--2--|
----------------------|-------------------------|--------------------------|


  E  E  Q    E  E  E  E     E  E  E  E  E  E  E  E     E  E  Q    E  E  E  E   
-------------------------|--------------------------|-------------------------|
--2-----2-------------4--|-----2--------------------|--2-----2-------------4--|
----------------3--------|-----------------2--3--2--|----------------3--------|
-------------------------|--------------------------|-------------------------|


  E  E  E  E  E  E  E  E     E  E  Q    E  E  E  E   
--------------------------|-------------------------|
-----2--------------------|--2-----2-------------4--|
-----------------2--3--2--|----------------3--------|
--------------------------|-------------------------|


  E  E   E  E  E   E  E  E     E  E  Q    E  E  E  E   
----------------------------|-------------------------|
-----5s-----4--4s-----3--3--|--2-----2-------------4--|
----------------------------|----------------3--------|
----------------------------|-------------------------|


  E  E  E  E  E  E  E  E     E  E  Q    E  E  E  E     E  E  E  E  E  E  E  E   
--------------------------|-------------------------|--------------------------|
-----2--------------------|--2-----2-------------4--|-----2--------------------|
-----------------2--3--2--|----------------3--------|-----------------2--3--2--|
--------------------------|-------------------------|--------------------------|


  E  E  Q    E  E  E  E     E  E  E  E  E  E  E  E     E  E  Q    E  E  E  E   
-------------------------|--------------------------|-------------------------|
--2-----2-------------4--|-----2--------------------|--2-----2-------------4--|
----------------3--------|-----------------2--3--2--|----------------3--------|
-------------------------|--------------------------|-------------------------|


  E  E   E  E  E   E  E  E     E  E  Q    E  E  E  E   
----------------------------|-------------------------|
-----5s-----4--4s-----3--3--|--2-----2-------------4--|
----------------------------|----------------3--------|
----------------------------|-------------------------|


  E  E  E  E  E  E  E  E     E  E  Q    E  E  E  E     E  E  E  E  E  E  E  E   
--------------------------|-------------------------|--------------------------|
-----2--------------------|--2-----2-------------4--|-----2--------------------|
-----------------2--3--2--|----------------3--------|-----------------2--3--2--|
--------------------------|-------------------------|--------------------------|


  E  E  Q    E  E  E  E     E  E  E  E  E  E  E  E     E  E  Q    E  E  E  E   
-------------------------|--------------------------|-------------------------|
--2-----2-------------4--|-----2--------------------|--2-----2-------------4--|
----------------3--------|-----------------2--3--2--|----------------3--------|
-------------------------|--------------------------|-------------------------|


  E  E   E  E  E   E  E  E     E  E  Q    E  E  E  E   
----------------------------|-------------------------|
-----5s-----4--4s-----3--3--|--2-----2-------------4--|
----------------------------|----------------3--------|
----------------------------|-------------------------|


  E  E  E  E  E  E  E  E     E  E  Q    E  E  E  E     E  E  E  E  E  E  E  E   
--------------------------|-------------------------|--------------------------|
-----2--------------------|--2-----2-------------4--|-----2--------------------|
-----------------2--3--2--|----------------3--------|-----------------2--3--2--|
--------------------------|-------------------------|--------------------------|


  E  E  Q    E  E  E  E     E  E  E  E  E  E  E  E     E  E  Q    E  E  E  E   
-------------------------|--------------------------|-------------------------|
--2-----2-------------4--|-----2--------------------|--2-----2-------------4--|
----------------3--------|-----------------2--3--2--|----------------3--------|
-------------------------|--------------------------|-------------------------|


  E  E   E  E  E   E  E  E     Q    Q    Q    E  E     E  E  E   E  E  E  E   
----------------------------|-----------------------|------------------------|
-----5s-----4--4s-----3--3--|-----------------------|------------------------|
----------------------------|--7----L----L----L-----|--7--9-----10-----9--7--|
----------------------------|--------------------8--|------------------------|


  Q    Q    Q    Q       Q    E  E  E  E  E     Q    Q    Q    Q     
----------------------|----------------------|----------------------|
----------------------|----------------------|----------------------|
--3----L----L----L----|--L----L--3--2-----0--|----------------------|
----------------------|----------------------|--3----L----L----L----|


  Q    Q    E  E  E     Q    Q    Q    Q       Q    Q    Q     
---------------------|----------------------|-----------------|
---------------------|----------------------|-----------------|
------------------0--|--2----L----L----L----|--L----L----L----|
--L----L----3--------|----------------------|-----------------|


  Q    Q    Q    E  E     E  E  E   E  E  E  E     Q    Q    Q    Q     
-----------------------|------------------------|----------------------|
-----------------------|------------------------|----------------------|
--7----L----L----L-----|--7--9-----10-----9--7--|--3----L----L----L----|
--------------------8--|------------------------|----------------------|


  E  E  E  E  Q    Q       Q    Q    Q    Q       E  E  E  E  Q    E   
------------------------|----------------------|----------------------|
------------------------|----------------------|----------------------|
--3--3-----3--2----0----|----------------------|--------------0----3--|
------------------------|--3----L----L----L----|--3--3-----3----------|


  Q    Q    Q    Q       Q    Q    Q    Q       Q     Q     Q    E  E   
----------------------|----------------------|-------------------------|
----------------------|----------------------|-------------------------|
--2----L----L----L----|--L----L----L----L----|--7----(0)----7----L-----|
----------------------|----------------------|----------------------8--|


  E  E  E   E  E  E  E  E     Q     Q     Q    Q       E  Q    E  E  E  E  E   
---------------------------|------------------------|-------------------------|
---------------------------|------------------------|-------------------------|
--7--9-----10-----9--7--0--|--3----(0)----3----0----|--3--3----3--2--0--2--0--|
---------------------------|------------------------|-------------------------|


  Q    E  E  Q    E  E     E  Q    Q    X E  E     E  E  E  E  E  E  E  E   
------------------------|-----------------------|--------------------------|
------------------------|-----------------------|--------------------------|
------------------------|-----------------0--3--|--2--L--L--L--3--L--L--L--|
--3-------0--3-------0--|--3--3----3------------|--------------------------|


  E  E  E  E  E   E  E     Q     Q     Q    E  E     E  E  E   E  E  E  E  E   
------------------------|-------------------------|---------------------------|
------------------------|-------------------------|---------------------------|
--5--7-----9-----10--9--|--7----(0)----7----L-----|--7--9-----10-----9--7--0--|
------------------------|----------------------8--|---------------------------|


  Q     Q     Q    Q       E  Q    E  E  E  E  E     Q    E  E  Q    E  E   
------------------------|-------------------------|------------------------|
------------------------|-------------------------|------------------------|
--3----(0)----3----0----|--3--3----3--2--0--2--0--|------------------------|
------------------------|-------------------------|--3-------0--3-------0--|


  E  Q    Q    X E  E     Q    Q    Q    Q       Q    Q    Q    Q     
-----------------------|----------------------|----------------------|
-----------------------|----------------------|----------------------|
-----------------0--3--|--2----L----L----L----|--L----L----L----L----|
--3--3----3------------|----------------------|----------------------|


  Q    Q    Q    Q       Q    Q    Q    Q       Q    Q    Q    Q     
----------------------|----------------------|----------------------|
----------------------|----------------------|----------------------|
--2----L----L----L----|--L----L----L----L----|--2----L----L----L----|
----------------------|----------------------|----------------------|


  Q    Q    Q    Q       Q    Q    Q    Q       Q    Q    Q    Q     
----------------------|----------------------|----------------------|
----------------------|----------------------|----------------------|
--L----L----L----L----|--2----L----2----L----|--2----L----2----L----|
----------------------|----------------------|----------------------|


  E  E  Q    E  E  E  E     E  E  E  E  E  E  E  E     E  E  Q    E  E  E  E   
-------------------------|--------------------------|-------------------------|
--2-----2-------------4--|-----2--------------------|--2-----2-------------4--|
----------------3--------|-----------------2--3--2--|----------------3--------|
-------------------------|--------------------------|-------------------------|


  E  E  E  E  E  E  E  E     E  E  Q    E  E  E  E     E  E  E  E  E  E  E  E   
--------------------------|-------------------------|--------------------------|
-----2--------------------|--2-----2-------------4--|-----2--------------------|
-----------------2--3--2--|----------------3--------|-----------------2--3--2--|
--------------------------|-------------------------|--------------------------|


  E  E  Q    E  E  E  E     E  E   E  E  E   E  E  E   
-------------------------|----------------------------|
--2-----2-------------4--|-----5s-----4--4s-----3--3--|
----------------3--------|----------------------------|
-------------------------|----------------------------|


  E  E  Q    E  E  E  E     E  E  E  E  E  E  E  E     E  E  Q    E  E  E  E   
-------------------------|--------------------------|-------------------------|
--2-----2-------------4--|-----2--------------------|--2-----2-------------4--|
----------------3--------|-----------------2--3--2--|----------------3--------|
-------------------------|--------------------------|-------------------------|


  E  E  E  E  E  E  E  E     E  E  Q    E  E  E  E     E  E  E  E  E  E  E  E   
--------------------------|-------------------------|--------------------------|
-----2--------------------|--2-----2-------------4--|-----2--------------------|
-----------------2--3--2--|----------------3--------|-----------------2--3--2--|
--------------------------|-------------------------|--------------------------|


  E  E  Q    E  E  E  E     E  E   E  E  E   E  E  E   
-------------------------|----------------------------|
--2-----2-------------4--|-----5s-----4--4s-----3--3--|
----------------3--------|----------------------------|
-------------------------|----------------------------|


  E  E  Q    E  E  E  E     E  E  E  E  E  E  E  E     E  E  Q    E  E  E  E   
-------------------------|--------------------------|-------------------------|
--2-----2-------------4--|-----2--------------------|--2-----2-------------4--|
----------------3--------|-----------------2--3--2--|----------------3--------|
-------------------------|--------------------------|-------------------------|


  E  E  E  E  E  E  E  E     E  E  Q    E  E  E  E     E  E  E  E  E  E  E  E   
--------------------------|-------------------------|--------------------------|
-----2--------------------|--2-----2-------------4--|-----2--------------------|
-----------------2--3--2--|----------------3--------|-----------------2--3--2--|
--------------------------|-------------------------|--------------------------|


  E  E  Q    E  E  E  E     E  E   E  E  E   E  E  E   
-------------------------|----------------------------|
--2-----2-------------4--|-----5s-----4--4s-----3--3--|
----------------3--------|----------------------------|
-------------------------|----------------------------|


  E  E  Q    E  E  E  E     E  E  E  E  E  E  E  E     E  E  Q    E  E  E  E   
-------------------------|--------------------------|-------------------------|
--2-----2-------------4--|-----2--------------------|--2-----2-------------4--|
----------------3--------|-----------------2--3--2--|----------------3--------|
-------------------------|--------------------------|-------------------------|


  E  E  E  E  E  E  E  E     E  E  Q    E  E  E  E     E  E  E  E  E  E  E  E   
--------------------------|-------------------------|--------------------------|
-----2--------------------|--2-----2-------------4--|-----2--------------------|
-----------------2--3--2--|----------------3--------|-----------------2--3--2--|
--------------------------|-------------------------|--------------------------|


  E  E  Q    E  E  E  E     E  E   E  E  E   E  E  E    
-------------------------|----------------------------||
--2-----2-------------4--|-----5s-----4--4s-----3--3--||
----------------3--------|----------------------------||
-------------------------|----------------------------||




Duration Legend
---------------
W - whole
H - half
Q - quarter
E - 8th
S - 16th
T - 32nd
X - 64th
. - note dotted
|-n-|  - n-tuplets


Tablature Legend
----------------
L - tied note
x - dead note
g - grace note
(n) - ghost note
> - accentuded note
NH - natural harmonic
AH - artificial harmonic
TH - tapped harmonic
SH - semi harmonic
PH - pitch harmonic
h - hammer on
p - pull off
b - bend
br - bendRelease
pb - preBend
pbr - preBendRelease
brb - bendReleaseBend
\n/ - tremolo bar dip
\n - tremolo bar dive
-/n - tremolo bar Release up
/n\ - tremolo bar inverted dip
/n - tremolo bar return
-\n - tremolo bar Release down
S - shift slide
s - legato slide
/ -  slide into from below or out of upwards
\ -  slide into from above or out of downwards
~ - vibrato
W - wide vibrato
tr - trill
TP - tremolo picking
T - tapping
S - slap
P - pop
< - fade in
^ - brush up
v - brush down
Добавлено: 08.04.2012
Другие материалы по этой песне:

Страница создана 08.04.2012
http://primanota.ru/bondan-prakoso/expresikan-chords.htm
Привет, Гость.
Предлагаем пройти революционный курс по гитаре.
Подарок от PrimaNota.Ru, забирай!