PrimaNota.ru - самый крупный в мире бесплатный архив песенных текстов, аккордов, табулатур и нот


Bond - Victory - таба, видео

Регистрация Запомнить меня
Войти через:  Facebook Google Twitter Vk Yandex Mail.ru

Bond - Victory - таба, видео

Печатать
Просмотров: 211
Авторы музыки: Tonči Huljić

Victory                                     
Bond
Explosive

Tabbed by Theo G. (sm/ro)


     S S S S S S S E  S E  E  E     S S S S S S S E  S E  E  E   
E||------------------------------|------------------------------|
B||--8---9-6---8------6-3--1--0--|------------------------------|
G||--------------8---------------|------------------------------|
D||------------------------------|--5---6-3---5-----------------|
A||------------------------------|--------------6----8-5--3--2--|
E||------------------------------|------------------------------|


  W                   E.  S S S S S S S S S S S S S  
-------------------|--------------------------------|
-------------------|--------------------------------|
-------------------|------------------------1-3-1---|
-------------------|------------0-1-0-3-5-3---------|
-------------------|------2-3-2---------------------|
-------------------|--------------------------------|


  S S S S S S S S S S S S S S S S    S E  E  S S S S E  S S S S S  
--------------1-3-1-3-4-5-6-7-5-7-|--8----8--8---8-8--------------|
--0-1-3-4-3-4---------------------|---------------------8-8-8-8-8-|
----------------------------------|-------------------------------|
----------------------------------|-------------------------------|
----------------------------------|-------------------------------|
----------------------------------|-------------------------------|


  S E  Q    Q    S S S S S    S E  Q    Q    S S S S S  
---------------------------|---------------------------|
--9-8------------8-8-8-8-8-|--9-8------------8-8-8-7-8-|
---------------------------|---------------------------|
---------------------------|---------------------------|
---------------------------|---------------------------|
---------------------------|---------------------------|


   S  S  S  S  S  S  S  S  S  S  S  S  S  S  S  S    H        E.  S S S S S  
--11-10-10----------------------------------------|-------------------------|
-----------13-13-11-11----------------------------|---------------8-8-8-7-8-|
-----------------------13-13-12-12-10-10-------12-|--7----------------------|
-----------------------------------------13-13----|-------------------------|
--------------------------------------------------|-------------------------|
--------------------------------------------------|-------------------------|


  S E  Q    Q    S S S  S S    S E  Q    Q    S S S S S  
-----------------------10---|---------------------------|
--9-8------------8-8-8----8-|--9-8------------8-8-8-7-8-|
----------------------------|---------------------------|
----------------------------|---------------------------|
----------------------------|---------------------------|
----------------------------|---------------------------|


   S S S  S  S  S  S  S  S  S  S  S  S  S  S  S  
--10-8-8----------------------------------------|
---------12-11----------------------------------|
---------------13-13-12-13-12-12-10-10----------|
---------------------------------------13-13-12-|
------------------------------------------------|
------------------------------------------------|


   S  S  S  S  S  S  S  S  H           E.  S S S S S S E  E  E.   
------------------------------------|----------------------------|
------------------------------------|------8-8-8-8-8-9-8---------|
--13-12-12-10-10-------12-----------|----------------------------|
-----------------13-12----10--------|----------------------------|
------------------------------------|----------------------------|
------------------------------------|----------------------------|


  E.  S S S S S S E  E  E.     E.  S S S S S  S  S  S S S  S  S S  
----------------------------|----------------11-10-10-8-8---------|
------8-8-8-8-8-9-8---------|------8-8-8-7-8--------------11-11-9-|
----------------------------|-------------------------------------|
----------------------------|-------------------------------------|
----------------------------|-------------------------------------|
----------------------------|-------------------------------------|


  S S S  S  S S S S H           E.  S S S S S S E  E  E.   
-----------------------------|----------------------------|
--9-8-8-----------8----------|------8-8-8-7-8-9-8---------|
--------10-10-8-8---7--------|----------------------------|
-----------------------------|----------------------------|
-----------------------------|----------------------------|
-----------------------------|----------------------------|


  E.  S S S  S S S E  E  E.     E.  S S S S S  S S S  S  S S S S  
------------10---------------|----------------10-8-8-------------|
------8-8-8----8-9-8---------|------8-8-8-7-8--------12-11-9-9-8-|
-----------------------------|-----------------------------------|
-----------------------------|-----------------------------------|
-----------------------------|-----------------------------------|
-----------------------------|-----------------------------------|


  S S S  S  S S S  S  S  S  S  S  S  S  S  S     H        Q    S  S  S  S  
---------------------------------------------|----------------------------|
--9-8-8--------------------------------------|----------------------------|
--------10-10-8-8----13-12-12-10-10-------12-|-------------------------12-|
------------------12----------------13-12----|--10---------------10-13----|
---------------------------------------------|----------------------------|
---------------------------------------------|----------------------------|


   S  S  S  S  S  S  S  S  S  S  S  S  S  S  S  S  
--------------10-------10-11-------10-------------|
--13-------13-------------------------------13----|
-----10-13-------10-13-------10-13----10-13----10-|
--------------------------------------------------|
--------------------------------------------------|
--------------------------------------------------|


  S S S S  S S S  S  S S S  S S S S S    S S S S S S S S S S S S S S S S  
--8-----8-10-----10-11-----10-----8---|--7-8---3-----------------2-3-4-6-|
----6-9------6-9-------6-9----6-9---6-|------7---3-4-0-----1-3-4---------|
--------------------------------------|----------------3-0---------------|
--------------------------------------|----------------------------------|
--------------------------------------|----------------------------------|
--------------------------------------|----------------------------------|


                          |--3--|  |--3--|  |--3--|  |--3--|  
  S  S  S  S  S  S  S  S  S  S  S  S  S  S  S  S  S  S  S  S  
--8-10-11-10-13-11-16-13-20-18-16-15-16-13-15-13-11-10-11-10-|
-------------------------------------------------------------|
-------------------------------------------------------------|
-------------------------------------------------------------|
-------------------------------------------------------------|
-------------------------------------------------------------|


  H        E.  S  S  S S S    H        E.  S  S  S S  S  
--8--------------11-10-8-7-|--8--------------11-10-8-11-|
---------------8-----------|---------------8------------|
---------------------------|----------------------------|
---------------------------|----------------------------|
---------------------------|----------------------------|
---------------------------|----------------------------|


   S E   S E  S S  S E   S E  S S     S E  S E  S S  S E.   E  E   
--10----11----8---10----11----8---|--10----8----7---10-----15-----|
----------------------------------|-------------------------8-----|
----------------------------------|-------------------------------|
----------------------------------|-------------------------0-----|
----------------------------------|-------------------------------|
----------------------------------|-------------------------3-----|


   S E   S E  S S  S E   S E  S S     S E  S E  S S  S E.   E  E   
--10----11----8---10----11----8---|--10----8----7---10-----15-----|
----------------------------------|-------------------------8-----|
----------------------------------|-------------------------------|
----------------------------------|-------------------------0-----|
----------------------------------|-------------------------------|
----------------------------------|-------------------------3-----|


   |--3--|  |--3--|  |--3--|  |--3--|  |--3--|  |--3--|  |--3--|  |--3--|  
   S  S  S  S  S  S  S  S  S  S  S  S  S  S  S  S  S  S  S  S  S  S  S  S  
--15-16-15-13-15-16-15-16-15-13-15-16-15-16-15-13-15-16-13-15-16-17-18-19-|
--------------------------------------------------------------------------|
--------------------------------------------------------------------------|
--------------------------------------------------------------------------|
--------------------------------------------------------------------------|
--------------------------------------------------------------------------|


   E  S E  S S S E  S S S S S S    S E  Q    Q    S S S S S  
--20----------------------------|---------------------------|
--------------------------------|-----------------8-8-8-8-8-|
--------------------------------|---------------------------|
--------------------------------|---------------------------|
--------3--3---3-3--------------|---------------------------|
----------------------3-3-3-3-3-|--4-3----------------------|


  S E  Q    Q    S S S S S     S  S  S S S  S  S S S S S  S  S S S S  
---------------------------|--11-10-10-8-8---------------------------|
--9-8------------8-8-8-7-8-|---------------11-11-9-9-8-8-----------8-|
---------------------------|-----------------------------10-10-8-8---|
---------------------------|-----------------------------------------|
---------------------------|-----------------------------------------|
---------------------------|-----------------------------------------|


  H        E.  S S S S S    S E  Q    Q    S S S  S S  
-------------------------|-----------------------10---|
---------------8-8-8-7-8-|--9-8------------8-8-8----8-|
--7----------------------|----------------------------|
-------------------------|----------------------------|
-------------------------|----------------------------|
-------------------------|----------------------------|


  S E  Q    Q    S S S S S     S S S  S  S S S S S S S  S  S S S S  
---------------------------|--10-8-8-------------------------------|
--9-8------------8-8-8-7-8-|---------12-11-9-9-8-9-8-8-------------|
---------------------------|---------------------------10-10-8-8-7-|
---------------------------|---------------------------------------|
---------------------------|---------------------------------------|
---------------------------|---------------------------------------|


  S S S  S  S S  S  S  H           Q    Q    S S S S S S S  S  
--------------------------------|-----------------------------|
--9-8-8-------------------------|------------8-----8-8-----11-|
--------10-10-8----12-----------|-----------------------------|
----------------12----10--------|--------------8-8-----8-8----|
--------------------------------|-----------------------------|
--------------------------------|-----------------------------|


   S S S  S  S S S  S  S S S  S  S S S  S  
------------------------------------------|
--11-----11-11-----11-11-----11-11-----11-|
-----8-8-------8-8-------8-8-------8-8----|
------------------------------------------|
------------------------------------------|
------------------------------------------|


   S S S  S  S S S  S S S S S S S S S    S S S S S S S S S S S S S S S S  
--------------------------------------|----------------------------------|
--11-----11-11-----11-9-----9-9-----9-|--9-----9-9-----9-9-----9-9-----9-|
-----8-8-------8-8--------------------|----------------------------------|
------------------------8-8-----8-8---|----8-8-----8-8-----8-8-----8-8---|
--------------------------------------|----------------------------------|
--------------------------------------|----------------------------------|


  S S S S S S S S H            H         H           H        H         
---------------------------|----------------------|-----------8--------|
--9-----9-9-----9-8--------|--20------------------|--9-----------------|
---------------------------|----------------------|--------------------|
----8-8-----8-8------------|----------------------|--------------------|
---------------------------|------------18--------|--------------------|
---------------------------|----------------------|--------------------|


   Q     Q     S  S  S  S  S  S  S  S     S E.  Q    E  S E  S S S  
--------------11-10-11-10----------10-|--11------------------------|
--------11----------------13-11-13----|----------------------------|
--10----------------------------------|----------------------------|
--------------------------------------|----------------------------|
--------------------------------------|----------------------------|
--------------------------------------|--------------3----3--3---3-|


  S E  S S S S S S E  E  E.     E.  S S S S S S E  E  E.   
-----------------------------|----------------------------|
-------8-8-8-8-8-9-8---------|------8-8-8-8-8-9-8---------|
-----------------------------|----------------------------|
-----------------------------|----------------------------|
-----------------------------|----------------------------|
--3--------------------------|----------------------------|


  E.  S S S  S S  S  S  S S S  S  S S    S S S  S  S S S S  H         
-----------------11-10-10-8-8---------|------------------------------|
------8-8-8----8--------------11-11-9-|--9-8-8-----------8-----------|
------------11------------------------|--------10-10-8-8-------------|
--------------------------------------|--------------------12--------|
--------------------------------------|------------------------------|
--------------------------------------|------------------------------|


  E.  S S S  S S S  E  E  E.     E.  S S S  S S S E  E  E.   
------------------------------|------------10---------------|
------8-8-8----8-9p-8---------|------8-8-8----8-9-8---------|
------------11----------------|-----------------------------|
------------------------------|-----------------------------|
------------------------------|-----------------------------|
------------------------------|-----------------------------|


  E.  S S S  S S  S S S  S  S S S S    S S S  S  S S S  S S S S  S  S S  S  S  
-----------------10-8-8-------------|-----------------------------------------|
------8-8-8----8--------12-11-9-9-8-|--9-8-8--------------9-8-8---------------|
------------11----------------------|--------10-10-8-8----------10-10-8----12-|
------------------------------------|------------------12---------------12----|
------------------------------------|-----------------------------------------|
------------------------------------|-----------------------------------------|


   H        Q    S  S S S    S  S S S  S  S S  S  S  S S S  S S S  S  
--------------------------|--8------8-10------10-11------8------8----|
------------------------8-|-------9---------9----------9------9------|
----------------------8---|----10--------10---------10-----10-----10-|
--10---------------10-----|------------------------------------------|
--------------------------|------------------------------------------|
--------------------------|------------------------------------------|


  S  S S S  S  S S  S  S  S S S  S S S  S  
--8------8-10------10-11------8------8----|
-------9---------9----------9------9------|
----10--------10---------10-----10-----10-|
------------------------------------------|
------------------------------------------|
------------------------------------------|


   S  S  S S  S S S  S  S  S  S S  S  S S  S  
-----10--------------------------------------|
--12-------8----------------------------9-11-|
--------11------8---------------8-11-12------|
-------------12---9-10----10-12--------------|
-----------------------10--------------------|
---------------------------------------------|


                          |--3--|  |--3--|  |--3--|  |--3--|  
  S  S  S  S  S  S  S  S  S  S  S  S  S  S  S  S  S  S  S  S  
--8-10-11-10-------16----20-18-16----16----------------------|
-------------18-16----18----------20----18-20-18-16----16----|
----------------------------------------------------19----19-|
-------------------------------------------------------------|
-------------------------------------------------------------|
-------------------------------------------------------------|


   H        E.  S  S  S S S    H        E.  S  S  S S  S  
------------------11-10-8-7-|--8--------------11-10-8-11-|
----------------8-----------|---------------8------------|
--17------------------------|----------------------------|
----------------------------|----------------------------|
----------------------------|----------------------------|
----------------------------|----------------------------|


   S E   S E  S S  S E   S E  S S     S E  S E   S S  S E.   E  E   
--10----11----8---10----11----8---|--10----8---------10-----15-----|
----------------------------------|-------------12-----------------|
----------------------------------|-------------------------12-----|
----------------------------------|--------------------------------|
----------------------------------|--------------------------5-----|
----------------------------------|--------------------------3-----|


   S E   S E  S S  S E   S E  S S     S E  S E   S S  S E.   E  E   
--10----11----8---10----11----8---|--10----8---------10-----15-----|
----------------------------------|-------------12-----------------|
----------------------------------|-------------------------12-----|
----------------------------------|--------------------------------|
----------------------------------|--------------------------5-----|
----------------------------------|--------------------------3-----|


   |--3--|  |--3--|  |--3--|  |--3--|  |--3--|  |--3--|  |--3--|  |--3--|  
   S  S  S  S  S  S  S  S  S  S  S  S  S  S  S  S  S  S  S  S  S  S  S  S  
--------------------------------------------------------------------18-19-|
--20-21-20----20-21-20-21-20----20-21-20-21-20----20-21----20-21-22-------|
-----------22----------------22----------------22-------22----------------|
--------------------------------------------------------------------------|
--------------------------------------------------------------------------|
--------------------------------------------------------------------------|


   E  S E  S S S E  S S S S S S    S E  Q    Q    S S S S S  
--20----------------------------|---------------------------|
--------------------------------|---------------------------|
--------------------------------|---------------------------|
--------------------------------|---------------------------|
--------3--3---3-3--------------|---------------------------|
----------------------3-3-3-3-3-|--4-3------------3-3-3-3-3-|


  S E  Q    Q    S S S S S    S S S S S S S S S S S S S S S S  
---------------------------|----------------------------------|
---------------------------|----------------------------------|
---------------------------|--------------------------------0-|
---------------------------|----0-0---------------------------|
---------------------------|--6---------------------8-8-6-6---|
--4-3------------3-3-3-3-3-|--------8-8-6-6-4-4-3-3-----------|


  H        E.  S S S S S    S E  Q    Q    S S S S S  
-------------------------|---------------------------|
-------------------------|---------------------------|
-------------------------|---------------------------|
--0----------------------|---------------------------|
-------------------------|---------------------------|
---------------3-3-3-3-3-|--4-3------------3-3-3-3-3-|


  S S S S S S S S S S S S S S S S    S S S S S S S S H         
----------------------------------|---------------------------|
----------------------------------|---------------------------|
----------------------------------|----------------0----------|
--------------------------------0-|--------------0------------|
--5---------------------8-8-6-6---|--------8-8-6--------------|
----8-8-7-6-4-4-3-4-3-3-----------|--4-3-3-----------8--------|


  S S S S S S S S H           E.  S S S S S S E  E  E.   
---------------------------|----------------4-3---------|
---------------------------|----------------------------|
----------------0----------|----------------------------|
--------------0------------|----------------------------|
--------8-8-6--------------|----------------------------|
--4-3-3-----------8--------|------3-3-3-3-3-------------|


  E.  S S S S S S E  E  E.     E.  S S S  S S  S  S  S S S  S  S S  
----------------------------|-----------------11-10-10-8-8---------|
------8-8-8-8-8-9-8---------|------8-8-8----8--------------11-11-9-|
----------------------------|------------11------------------------|
----------------------------|--------------------------------------|
----------------------------|--------------------------------------|
----------------------------|--------------------------------------|


  S S S  S  S S S S H           E.  S S S  S S S E  E  E.   
-----------------------------|-----------------------------|
--9-8-8-----------8----------|------8-8-8----8-9-8---------|
--------10-10-8-8---7--------|------------11---------------|
-----------------------------|-----------------------------|
-----------------------------|-----------------------------|
-----------------------------|-----------------------------|


  E.  S S S  S S S E  E  E.     E.  S S S S S  S S S  S  S S S S  
------------10---------------|----------------10-8-8-------------|
------8-8-8----8-9-8---------|------8-8-8-7-8--------11-11-9-9-8-|
-----------------------------|-----------------------------------|
-----------------------------|-----------------------------------|
-----------------------------|-----------------------------------|
-----------------------------|-----------------------------------|


  S S S  S  S S S S S S S  S  S S S S     H        H         
--------------------------------------|---------------------|
--9-8-8-------------9-8-8-----------8-|---------------------|
--------10-10-8-8-7-------10-10-8-7---|---------------------|
--------------------------------------|--10-----------------|
--------------------------------------|---------------------|
--------------------------------------|---------------------|


  S S S S  S  S  S S  S  S S  S S  S S S  
-----------------------------------------|
---------------------------8----9-11-9---|
-------------------8----10---10----------|
--5-6---9-10----12---12------------------|
------8------13--------------------------|
-----------------------------------------|


   S  S  S  S  S  S  S  S  S  S  S  S  S  S  S  S  
-----20-------------------------------------------|
--20----20-------18-------------------------------|
-----------19-------15-------19----------15----15-|
--------------20-------15-17----17----19----18----|
-----------------------------------17-------------|
--------------------------------------------------|


   S E   E   S S  S  E  E  Q      
--------------------------------||
--------------------------------||
--17----17--17---17-17----------||
--------------------------------||
--------------------------------||
--------------------------------||




Duration Legend
---------------
W - whole
H - half
Q - quarter
E - 8th
S - 16th
T - 32nd
X - 64th
. - note dotted
|-n-|  - n-tuplets


Tablature Legend
----------------
L - tied note
x - dead note
g - grace note
(n) - ghost note
> - accentuded note
NH - natural harmonic
AH - artificial harmonic
TH - tapped harmonic
SH - semi harmonic
PH - pitch harmonic
h - hammer on
p - pull off
b - bend
br - bendRelease
pb - preBend
pbr - preBendRelease
brb - bendReleaseBend
\n/ - tremolo bar dip
\n - tremolo bar dive
-/n - tremolo bar Release up
/n\ - tremolo bar inverted dip
/n - tremolo bar return
-\n - tremolo bar Release down
S - shift slide
s - legato slide
/ -  slide into from below or out of upwards
\ -  slide into from above or out of downwards
~ - vibrato
W - wide vibrato
tr - trill
TP - tremolo picking
T - tapping
S - slap
P - pop
< - fade in
^ - brush up
v - brush down
Добавлено: 16.06.2012
Вам также может быть интересно:
Другие материалы по этой песне:

Страница создана 24.03.2012
http://primanota.ru/bond/victory-chords.htm
Привет, Гость.
Предлагаем пройти революционный курс по гитаре.
Подарок от PrimaNota.Ru, забирай!