PrimaNota.ru - самый крупный в мире бесплатный архив песенных текстов, аккордов, табулатур и нот


Bond - Explosive - таба, видео

Регистрация Запомнить меня
Войти через:  Facebook Google Twitter Vk Yandex Mail.ru

Bond - Explosive - таба, видео

Печатать
Просмотров: 365
Авторы музыки: Tonči Huljić

Song - Explosive
Artist - Bond
Album - Classified
Tabbed by Angel Fires


Transposed for Guitar


Sound heard in intro:
e----------------------|
B----------------------|
G-0--------------------|
D-------1--------------|
A--------------3-------|
E----------------------|


Main Riff:
e-----------------------------------------------|
B-----------------------------------------------|
G-0-5-7-8-7----5----0--3------1----------0------|
D-------------------------------------1---------|
A-----------------------------------------------|
E-----------------------------------------------|

Background Riff:

e-------------------|-------------------|
B-------------------|-------------------|
G-------------------|-------------------|
D-5-5-5-5--5-5-5-5--|-6-6-6-6--4-4-4-4--|
A-5-5-5-5--5-5-5-5--|-6-6-6-6--4-4-4-4--|
E-3-3-3-3--3-3-3-3--|-4-4-4-4--4-4-4-4--|

That's all I have for now, more to come!
Добавлено: 19.04.2012
Другие материалы по этой песне:

Страница создана 05.04.2012
http://primanota.ru/bond/explosive-chords.htm
Привет, Гость.
Предлагаем пройти революционный курс по гитаре.
Подарок от PrimaNota.Ru, забирай!