PrimaNota.ru - самый крупный в мире бесплатный архив песенных текстов, аккордов, табулатур и нот


Bonaparte - Me So Selfie Feat Tim Fite - аккорды и текст, видео

Регистрация Запомнить меня
Войти через:  Facebook Google Twitter Vk Yandex Mail.ru

Bonaparte - Me So Selfie Feat Tim Fite - аккорды и текст, видео

Печатать
Просмотров: 96
Me So Selfie Feat Tim Fite
Bonaparte
----------------------------------------------------------------------------------------------------------------
                             Me So Selfie (feat. Tim Flite) - Bonaparte, Tim Flite
----------------------------------------------------------------------------------------------------------------
Tabbed by: chameleon

Tuning: standard tuning

chords used: B7, D10, A5, F#

    B 7        D 10         A 5         F#     

e|-7----|  e|-10----|  e|-5-----|  e|-2-----| 
B|-7----|  B|-10----|  B|-5-----|  B|-2-----|
G|-8----|  G|-11----|  G|-6-----|  G|-3-----|
D|-8----|  D|-12----|  D|-7-----|  D|-4-----|
A|-9----|  A|-12----|  A|-7-----|  A|-4-----|
E|-7----|  E|-10----|  E|-5-----|  E|-2-----|  


INTRO:

e|------------------------------------| x3     e|----------| x4
B|------------------------------------|        B|----------|
G|------------------------------------|        G|----------|
D|------------------------------------|        D|----------|
A|--2-2-2-2-2-2-0-0-5-5-5-2-2-2-0-0---|        A|----------|
E|------------------------------------|        E|--2-2-2-2-|


e|------------------------------------| x3                             
B|------------------------------------|                               
G|------------------------------------|                                
D|------------------------------------|                                
A|--2-2-2-2-2-2-0-0-5-5-5-2-2-2-0-0---|                                
E|------------------------------------|                                
ah yeah, me so selfie, 
I've got so many of me and myself on my celly
watch me, how I touch my jelly, while I

e|----------| x4
B|----------|
G|----------|
D|----------|
A|----------|
E|--2-2-2-2-|
watch your sisters watching telly  


e|------------------------------------| x3  
B|------------------------------------|       
G|------------------------------------|     
D|------------------------------------|        
A|--2-2-2-2-2-2-0-0-5-5-5-2-2-2-0-0---|       
E|------------------------------------| 
ah yeah, me so selfie, 
I'm so pretty that I creep my selfie 
better then a mirror, a new era, I 

e|----------| x4
B|----------|
G|----------|
D|----------|
A|----------|
E|--2-2-2-2-|
look so good that i shed a little teara


e|-----------------------------------------------------------------------------| 
B|-----------------------------------------------------------------------------|  
G|-----------------------------------------------------------------------------|  
D|-----------------------------------------------------------------------------|  
A|-3---------------------5------7--------2-------------------------------------|   
E|-----------------------------------------------------------------------------|   
   duck tape, duck face, i'm so deep in, picture me shitfaced, i'm just sleeping
  

e|----------------------------------------------------------------------------------------------------------| 
B|----------------------------------------------------------------------------------------------------------|  
G|----------------------------------------------------------------------------------------------------------|  
D|----------------------------------------------------------------------------------------------------------|  
A|-3-------------------------5------------7------------9----------------------------------------------------|   
E|----------------------------------------------------------------------------------------------------------|
   picture me "click" ah, my arm is in the picture ey  picture me again, now my thumb is in the picture frame


B  B     D     B     A  B    B    D         B     A  B 
ah yeah, me so selfie   me & me & me and my selfie   

B  D     B     A     B  
ah yeah, me so selfie    so sweet i could eat my selfie

B                   A      D         B           A     B                      A     D       B       A     B
ah look at this one now,    that was just yesterday    look at the look on my face, i never want to look away 

           A       D          B         A
this is me with a  hypodermic needle    with a flashlight under my chin i look evil


e|-----------------------------------------------------------------------------| 
B|-----------------------------------------------------------------------------|  
G|-----------------------------------------------------------------------------|  
D|-----------------------------------------------------------------------------|  
A|-3----5--------------7--------2----------------------------------------------|   
E|-----------------------------------------------------------------------------|  
        This one's for Emily,       and this one's for Beverly.
       


e|----------------------------------------------------------------------------------------------------------| 
B|----------------------------------------------------------------------------------------------------------|  
G|----------------------------------------------------------------------------------------------------------|  
D|----------------------------------------------------------------------------------------------------------|  
A|-3-------------------------5------------7------------9----------------------------------------------------|   
E|----------------------------------------------------------------------------------------------------------|
   This one's for Tamika. Another    for  Beverly.         Oh, Beverly! I'll take one in bed of me.


B  B     D     B     A  B    B    D         B     A  B  
ah yeah, me so selfie   me & me & me and my selfie 

B             D        B       A          B                A    D      B        
  Aw, yeah. I treat my selfie.    If your boyfriend is nosy, delete my selfie.

B                          A  D       B       A 
  I complete my selfie.    Retreat my selfie.

F#
Me, me, me and my selfie.


INSTRUMENTAL:
                       x3
B   A  B  D   B   A         F#


VOCAL (no guitar):

 Do I look sexy? Look at those abs!
 Do I look fat? Look at those abs!
 Do I look slutty? Look at those abs!


                       x3
B   A  B  D   B   A         F#


Oh. My. God. Look at my abs! Yeah, six pack. I work out.
You work out? I work out all the time, yo. Yeah, I work out.



B  B     D     B     A  B    B    D         B     A  B  
ah yeah, me so selfie   me & me & me and my selfie 

B              D        B       A          B                A     D     B      A   B     
   Aw, yeah. I treat my selfie.    If your boyfriend is nosy, delete my selfie.

B                           A  D       B 
   I complete my selfie.    Retreat my selfie.

F#
Me, me, me and my selfie.
Добавлено: 06.12.2015
Другие материалы по этой песне:
  • Аккорды и текст

Страница создана 06.12.2015
http://primanota.ru/bonaparte/me-so-selfie-feat-tim-fite-chords.htm
Привет, Гость.
Предлагаем пройти революционный курс по гитаре.
Подарок от PrimaNota.Ru, забирай!