PrimaNota.ru - самый крупный в мире бесплатный архив песенных текстов, аккордов, табулатур и нот


Bon Jovi - Always Live - таба, видео

Регистрация Запомнить меня
Войти через:  Facebook Google Twitter Vk Yandex Mail.ru

Bon Jovi - Always Live - таба, видео

Печатать
Просмотров: 170
Always  Outro solo tab (Live in London 1995 )
Artist: Richie Sambora (Bon Jovi)
Album: Crossroad
Tab by jaime_ayala93@hotmail.com

h: hammer on
p: pull off
/: Slide
b: bend
r: return bend
~: vibrato
*: pinch harmonic
/////: picking tremolo
                         ALWAYS OUTRO SOLO TAB LIVE IN LONDON
It starts at 4:57
                       
e|----------------------------------------------------------------------|
b|--12b-12b-12b----------------------------------9--12b14--12r9--9------|
g|--11b-11b-11b--9h11----------------------9--11------------------------|
D|--------------------9-9~-----9----9--11-------------------------------|
A|-------------------------/11---11-------------------------------------|
E|----------------------------------------------------------------------|

e|----------------------------------------------------------------------|
b|----------------------------------------------------------------------|
g|--9b11r9--9----------------------9-11-9-----------------9--9b11~------|
D|-------------11-------9----9--11--------11--9-----9--11---------------|
A|------------------/11---11---------------------11---------------------|
E|----------------------------------------------------------------------|

Now comes the main solo
                                                      
e|----------------------------------------------------------------------|
b|--12b-12b-12b-12b-12b-12b-12b-12b-12b-12b-------------12b14*----------|
g|--11b-11b-11b-11b-11b-11b-11b-11b-11b-11b--9h11-----------------------|
D|-------------------------------------------------9-9~-----------------|
A|----------------------------------------------------------------------|
E|----------------------------------------------------------------------|
                      
e|-9--------------------------------------------------------------------|
b|---12p9---12p9----12-12p9---12-12p9----12-12p9---12-12p9----12-12p9---|
g|--------11-----11---------11--------11---------11---------11--------11|
D|----------------------------------------------------------------------|
A|----------------------------------------------------------------------|
E|----------------------------------------------------------------------|

e|----------------------------------------------------------------------|
b|12-12p9---12p9----12-12p9---12-12p9----12-12p9---12-12p9----12-12p9---|
g|--------11-----11---------11--------11---------11---------11--------11|
D|----------------------------------------------------------------------|
A|----------------------------------------------------------------------|
E|----------------------------------------------------------------------|

e|-12b14-12-12-9-12-9-12b14-12--9-9-------------------------------------|
b|----------------------------------12-9--12p9---12p9----12p9----12p9---|
g|-------------------------------------------11-----11------11-------11-|
D|----------------------------------------------------------------------|
A|----------------------------------------------------------------------|
E|----------------------------------------------------------------------|


e|-------------------12-14--14b16-14b16-14b16-14b16-14b16-14b16-14b16*--|
b|-12p9--------12-14----------------------------------------------------|
g|------11--/13---------------------------------------------------------|
D|----------------------------------------------------------------------|
A|----------------------------------------------------------------------|
E|----------------------------------------------------------------------|


e|-14b16-14-12-14b16-12-14p12-------14p12-------14p12-------14p12-------|
b|----------------------------14p12-------14p12-------14p12--------14p12|
g|----------------------------------------------------------------------|
D|----------------------------------------------------------------------|
A|----------------------------------------------------------------------|
E|----------------------------------------------------------------------|


e|-14p12------14p12-------14p12--------14p12-------14p12-------14p12----|
b|-------14p12------14p12--------14p12-------14p12-------14p12----------|
g|----------------------------------------------------------------------|
D|----------------------------------------------------------------------|
A|----------------------------------------------------------------------|
E|----------------------------------------------------------------------|


e|-14p12------14p12-------14p12--------14p12-------14p12-------14p12----|
b|-------14p12------14p12--------14p12-------14p12-------14p12----------|
g|----------------------------------------------------------------------|
D|----------------------------------------------------------------------|
A|----------------------------------------------------------------------|
E|----------------------------------------------------------------------|


e|----------12-12-------------------------------------------------------|
b|----12-14----12h14p12-------------9------------------9-------9-------9|
g|-/13-------------------13--11--9--9h11p9--------9-11----9b11----9b11--|
D|-----------------------------------------11-/11-----------------------|
A|----------------------------------------------------------------------|
E|----------------------------------------------------------------------|

e|----------------------------------------------------------------------|
b|-------9-------9------9-------9---9-----------9-------------9---------|
g|--9b11----9b11---9b11----9b11-------9b11r9-9----9b11r9-9------9b11r9--|
D|-------------------------------------------11------------11-----------|
A|----------------------------------------------------------------------|
E|----------------------------------------------------------------------|

e|----------------------------------------------------------------------|
b|---------9-----------------9-12b14*--14r12///////-11--12-9--12/14-----|
g|----9------9b11r9-9----9-11-------------------------------------------|
D|------11------------11------------------------------------------------|
A|----------------------------------------------------------------------|
E|----------------------------------------------------------------------|

e|----------------------------------------------------------------------|
b|-12/14-12-9-----------------------------------------------------------|
g|------------9b11r9------9-11------------------------------------------|
D|--------------------/11------11~~~~-----------------------------------|
A|----------------------------------------------------------------------|
E|----------------------------------------------------------------------|
Добавлено: 06.09.2013
Другие материалы по этой песне:
  • Аккорды и текст

Страница создана 06.09.2013
http://primanota.ru/bon-jovi/always-live-chords.htm
Привет, Гость.
Предлагаем пройти революционный курс по гитаре.
Подарок от PrimaNota.Ru, забирай!