PrimaNota.ru - самый крупный в мире бесплатный архив песенных текстов, аккордов, табулатур и нот


Bombay Bicycle Club - Still - аккорды и текст, таба, видео

Регистрация Запомнить меня
Войти через:  Facebook Google Twitter Vk Yandex Mail.ru

Bombay Bicycle Club - Still - аккорды и текст, таба, видео

Печатать
Просмотров: 171
Still
Bombay Bicycle Club
No capo for original key
Standard tuning
Fingerpick or strum - they both sound good

Dm C G
Held your standards close to heart
Dm C Am G
But late one night you threw them down
Dm C G
Simple promises you said you'd 
Dm C Am G
Never break but now you have

Dm C G
All throughout the morning though
Dm C 
I'm begging no

-----0---1----3--------------------|
-----1-- 3----5----0---1---3-------|
-------------------0---2---4-------|
-----------------------------------|
-----------------------------------|
-----------------------------------|

Your lips they stay perfectly 
F C G x4
Still...

Dm C G
Did he fill the empty spaces
Dm C Am G
Was he everything I'm not?
Dm C G
There's no force behind my mouth
Dm C Am G
But in just three words he brings you down

Dm C G
There's a movement out the door
Dm C
I swear but no

-----0---1----3--------------------|
-----1-- 3----5----0---1---3-------|
-------------------0---2---4-------|
-----------------------------------|
-----------------------------------|
-----------------------------------|

Your lips they stay perfectly still

F C G x6
Still... 

Добавлено: 14.06.2014
Другие материалы по этой песне:
  • Аккорды и текст

Страница создана 26.02.2012
http://primanota.ru/bombay-bicycle-club/still-chords.htm
Привет, Гость.
Предлагаем пройти революционный курс по гитаре.
Подарок от PrimaNota.Ru, забирай!