PrimaNota.ru - самый крупный в мире бесплатный архив песенных текстов, аккордов, табулатур и нот


Bombay Bicycle Club - Pedestal - текст песни, таба, видео

Регистрация Запомнить меня
Войти через:  Facebook Google Twitter Vk Yandex Mail.ru

Bombay Bicycle Club - Pedestal - текст песни, таба, видео

Печатать
Просмотров: 44
Новый альбом группы 'Черный Кузнец' по культовому сериалу 'Сверхъестественное'!
Bombay Bicycle Club
Pedestal
How We Are EP

Transcribed by: Saviano P.


Verse:

Guitar 1:
G                                           D
e|----------------------------------------------------------|
B|-10--7--10--7---------10--7--10--7-----------------7------|
G|----------------9--7----------------9--7--9~----9---------| X2
D|------------------------------------------------------9~--|
A|----------------------------------------------------------|
E|----------------------------------------------------------|

Guitar 2: D, G 


Pre-chorus:
Guitar 1: 
e|------------------------------------------------------------------|
B|-----7---7---7--5------7---7---7-5-----7---5---10-----10-----5-0--|
G|-0-----0---0------0------0---0-----0-----0---0----0------0--------|
D|---0-----------------0---------------0--------------0------0------|
A|------------------------------------------------------------------|
E|------------------------------------------------------------------|

Guitar 2:

e|-------------------------------------------------------|
B|--------------------------------15---------------------|
G|----16--14~---16--14~---16--14-----12--11--------------|
D|--16--16----16--16----16--16-------------14--12--------|
A|------------------------------------------------14-12--|
E|-------------------------------------------------------|

Chorus:

Guitars 1 and 2:
e|-------------------------------------------------------|
B|-------------------------------------------------------|
G|-44444444-1111111111111111-44444444-111111111111111111-|
D|-55555555-1212121212121212-55555555-121212121212121212-|
A|-55555555-1212121212121212-55555555-121212121212121212-|
E|-33333333-1010101010101010-33333333-101010101010101010-|

e|---------------------------1010101010101010-------------------|
B|---------------------------1212121212121212-------------------|
G|-44444444-1111111111111111-1212121212121212-11111111-16161616-|
D|-55555555-1212121212121212-1212121212121212-12121212-17171717-|
A|-55555555-1212121212121212-1010101010101010-12121212-17171717-|
E|-33333333-1010101010101010------------------10101010-15151515-|


e|------------------------------------------------------|
B|------------------------------------------------------|
G|-44444444-1111111111111111-44444444-11111111-16161616-|
D|-55555555-1212121212121212-55555555-12121212-17171717-|
A|-55555555-1212121212121212-55555555-12121212-17171717-|
E|-33333333-1010101010101010-33333333-10101010-15151515-|

Interlude: 

Guitar 1: Rest 

Guitar 2:D, G (x2)


Bridge: 

Guitar 1: 

 A       G   A     D
e|-5--5-5--3---5--5--3--3--|
B|-5--5-5--3---5--5--5--5--|
G|-6--6-6--4---6--6--5--5--|
D|-7--7-7--5---7--7--5--5--|
A|-7--7-7--5---7--7--3--3--|
E|-5--5-5--3---5--5--------|

Guitar 2:
Rest 4 measures then come in:

e|---7---5--10---------------|
B|-------------8-7-----------|
G|-----------------9--7------|
D|-0---0----------------9-7--|
A|---------------------------|
E|---------------------------|
  

Pre-Chorus:
His height...

Guitar 1: 

e|------------------------------------------------------------------|
B|-----7---7---7--5------7---7---7-5-----7---5---10-----10-----5-0--|
G|-0-----0---0------0------0---0-----0-----0---0----0------0--------|
D|---0-----------------0---------------0--------------0------0------|
A|------------------------------------------------------------------|
E|------------------------------------------------------------------|


Guitar 2: 

e|-------------------------------------------------------|
B|--------------------------------15---------------------|
G|----16--14~---16--14~---16--14-----12--11--------------|
D|--16--16----16--16----16--16-------------14--12--------|
A|------------------------------------------------14-12--|
E|-------------------------------------------------------|












Добавлено: 10.03.2018
Другие материалы по этой песне:
  • Аккорды и текст

Страница создана 18.01.2014
http://primanota.ru/bombay-bicycle-club/pedestal-chords.htm
Привет, Гость.
Предлагаем пройти революционный курс по гитаре.
Подарок от PrimaNota.Ru, забирай!