PrimaNota.ru - самый крупный в мире бесплатный архив песенных текстов, аккордов, табулатур и нот


Bombay Bicycle Club - Ivy Gold - таба, видео

Регистрация Запомнить меня
Войти через:  Facebook Google Twitter Vk Yandex Mail.ru

Bombay Bicycle Club - Ivy Gold - таба, видео

Печатать
Просмотров: 187
Bombay Bicycle Club - Ivy & Gold
================================

Capo on the 6th fret.

Tuning: Standard

Intro/Verse

e------0-------------------------------0-----------------------------------|
B----3---3-0-----------0-------------3---3-0---------------------------0---|
G------------2---0---2---2-0-----------------2---0---2--2--2h4---2---2-----|
D----------------------------2---0---------------------2-----------0-------|
A--------------------3---3---3---3---------------2---0---------------------|
E----3---3---3---3-------------------3---3---3-------------------2---------|
     
     G               C               G              Am         D

e------0-------------------------------------------------------------------|
B----3---3-0-----------0---------------0-----1-0------------------0--------|
G------------2---0---2---2-0---------0-----0-----2-0---0---0---0--0--------|
D----------------------------2---0---0-------0---0---------0---0-----------|
A----------------2---3---3---0---3-----------------------------------------|
E----3---3---3-----------------------3---3-----------3---3---3---3---------|

     G               C               G       D7      G


Verse 1

G                       C
Waking sitting up right can't explain the sunlight
G                         Am     D
Wondering why you're not home
G                
Girl I go beside you
C                        G        D7           G         
left before you tried to work out all the unknowns

Verse 2

Blame it all on me when I forget to defend
Everything that we worked out
something in her wording I cannot help searching
For what memory found

Chorus

Dm
Thought it stopped just as it start
             C            G   C    G D7 G
But that is not what you are
Dm
You're a layer on my clothes
        C           G   (repeat intro/verse riff)
Made of ivy and gold

Verse 3

Meet me in the hallway bite your lip when i say
Never have you left my mind
Stop and think it over smiling moving closer
oh what delicate time

Verse 4

Blame it all on my when I forget to defend
everything that we put down
Something in her wording
I guess she was just searching
for some soletary sound

Chorus

Thought it stopped just as it starts
But that is not what you are

You're a layer on my clothes
Made of ivy and gold   

You're a layer on my clothes
Made of ivy and gold          

End riff
e---------------0---|
B---------------3---|
G---------------4---|
D----5--------------|
A------2-3-4-5------|
E----3----------3---|
Добавлено: 06.04.2012
Другие материалы по этой песне:
  • Аккорды и текст

Страница создана 06.04.2012
http://primanota.ru/bombay-bicycle-club/ivy-gold-chords.htm
Привет, Гость.
Предлагаем пройти революционный курс по гитаре.
Подарок от PrimaNota.Ru, забирай!