PrimaNota.ru - самый крупный в мире бесплатный архив песенных текстов, аккордов, табулатур и нот


Bombay Bicycle Club - Autumn - текст песни, бас-таба, драм-таба, видео

Регистрация Запомнить меня
Войти через:  Facebook Google Twitter Vk Yandex Mail.ru

Bombay Bicycle Club - Autumn - текст песни, бас-таба, драм-таба, видео

Печатать
Просмотров: 208
-------------------------------------------------------------------------------
			 AUTUMN - Bombay Bicycle Club
-------------------------------------------------------------------------------

Tabbed By : BassDudeHT
e-mail: natlav@live.ca

Tuning: Standard


Intro:
        4x                                                                  3x
G|-------|------------------------------------------------------------------|
D|*-----*|*----------------------------------------------------------------*|
A|*--R--*|*5-5-5-5-0-0-0-0------------------5-5-5-5-0-0-0-0---------3-3-3-3*|
E|-------|-----------------1-1-1-1-1-13-3-3-----------------1-1-1-1---------|

			             /\ '1' and '3', not 13

Verse:
                                  2x
G|---------------------------------|
D|*-------------------------------*|
A|*5-5-5-5-5-5-5-5-5-5-5-5-5-5-5-5*|
E|---------------------------------|


Chorus:
                                                                    2x
G|------------------------------------------------------------------|
D|*----------------------------------------------------------------*|
A|*5-5-5-5-0-0-0-0------------------5-5-5-5-0-0-0-0---------3-3-3-3*|
E|-----------------1-1-1-1-1-13-3-3-----------------1-1-1-1---------|

                             /\ '1' and '3', not 13

Post-Chorus:


Play this:

G|------------------|
D|------------------|
A|5-5-5-5-5-5-5-5-5-|
E|------------------|


Then the song will go into this wierd techno spot then it'll basically play 
the same bassline again around 10-12 bars later (around 2:12).


G|--------------------------------|
D|--------------------------------|
A|5-5-5-5-5-5-5-5-5-5-5-5-5-5-5-5-|
E|--------------------------------|



Verse:
                                  2x
G|---------------------------------|
D|*-------------------------------*|
A|*5-5-5-5-5-5-5-5-5-5-5-5-5-5-5-5*|
E|---------------------------------|


Verse (pt 2):
                                   2x
G|----------------------------------|
D|*--------------------------------*|
A|*5-5-5-5-0-0-0-0-----------------*|
E|-----------------1-1-1-1-11-1-3-3-|

                           /\ 2 '1's here


Chorus:
                                                                  
G|-----------------------------------------------------------------|
D|-----------------------------------------------------------------|
A|5-5-5-5-0-0-0-0------------------5-5-5-5-0-0-0-0---------3-3-3-3-|
E|----------------1-1-1-1-1-13-3-3-----------------1-1-1-1---------|

                            /\ '1' and '3', not 13


Chorus 2:                                          
                                   
G|------------------------------------------------------------------|
D|------------------------------------------------------------------|
A|-5-5-5-5-0-0-0-0------------------5-5-5-5-0-0-0-0---------3-3-3-3-|
E|-----------------1-1-1-1-11-1-3-3-----------------1-1-1-1---------|

                           /\ 2 '1's here

Ending:                                             \/ these are 10's 
                                   2x
G|--------------------------------------------------10-10-10-10----------|
D|------------------------------------------------------------------10---|
A|-5-5-5-5-0-0-0-0------------------5-5-5-5-0-0-0-0-------------3-3----3-|
E|-----------------1-1-1-1-11-1-3-3--------------------------------------|

                           /\ 2 '1's here



| /  slide up
| \  slide down
| h  hammer-on
| p  pull-off
| ~  vibrato
| +  harmonic
| x  Mute note


I'm not 100% sure if the ending is right, but I believe the rest is good to go though. 
If you have any questions, my e-mail is at the top. Have fun!


===============================================================================
Добавлено: 21.04.2012
Другие материалы по этой песне:
  • Аккорды и текст

Страница создана 21.04.2012
http://primanota.ru/bombay-bicycle-club/autumn-chords.htm
Привет, Гость.
Предлагаем пройти революционный курс по гитаре.
Подарок от PrimaNota.Ru, забирай!