PrimaNota.ru - самый крупный в мире бесплатный архив песенных текстов, аккордов, табулатур и нот


Bombay Bicycle Club - Always Like This - аккорды и текст, таба, бас-таба, видео

Регистрация Запомнить меня
Войти через:  Facebook Google Twitter Vk Yandex Mail.ru

Bombay Bicycle Club - Always Like This - аккорды и текст, таба, бас-таба, видео

Печатать
Просмотров: 444
Always Like This
Bombay Bicycle Club
-------------------------------------------------------------------------------
                             Always Like This - Bombay Bicycle Club
-------------------------------------------------------------------------------
Tabbed by: Milchbubi99
Email: milchbubi99@yahoo.de

Tuning: EADGBe


Intro

C#
Oh she can wait,
    Bbm
For what I can give,
     C#    
She knows what I am but,
Bbm
She won't believe me,
   C#
Is it all ok?
       Bbm
Will I come off the lightest?
C#
I can't believe it,
Bbm
It's always like this,

Riff:

e|---------------------------1---------------------------------------------|
B|---------6-----4---------------------------------------------------------|
G|-------6-----6-----------3-----------------------------------------------|
D|----------6--------------------3-4-6-------------------------------------|
A|--4-----------------1----------------------------------------------------|
E|-------------------------------------------------------------------------|

[play either riff or chords over verse]


Kept it at bay
Yes you kept your words
There on your mouth
But it's not what I heard

If I follow the light
That I deem the brightest
I won't believe that
It's always like this


Refrain:
F#      Ebm 
I'm not whole
        Bbm
I'm not whole
             F#
You waste it all

[Repeat]

Ab
all...
I'm not whole

[Riff]

Oh you can wait
For what I can give
You know what I am
So you know how I live
Try to look proud
But you're not in the slightest
Its happening now
And it's always been like this

[Refrain]

| /  slide up
| \  slide down
| h  hammer-on
| p  pull-off
| ~  vibrato
| +  harmonic
| x  Mute note

===============================================================================
Добавлено: 19.06.2012
Другие материалы по этой песне:
  • Аккорды и текст

Страница создана 22.02.2012
http://primanota.ru/bombay-bicycle-club/always-like-this-chords.htm
Привет, Гость.
Предлагаем пройти революционный курс по гитаре.
Подарок от PrimaNota.Ru, забирай!