PrimaNota.ru - самый крупный в мире бесплатный архив песенных текстов, аккордов, табулатур и нот


Bombardier - Glasnik Smrti - таба, видео

Регистрация Запомнить меня
Войти через:  Facebook Google Twitter Vk Yandex Mail.ru

Bombardier - Glasnik Smrti - таба, видео

Печатать
Просмотров: 149
Уроки эстрадного вокала в Санкт-Петербурге
BOMBARDER - GLASNIK SMRTI


Riff 1:

E------------------------------------|
H------------------------------------|
G------------------------------------|
D-------------2------------2---------|
A---2—2—--2-3----2-2---2-3---3-2-----|
E---0—0----------0—0-----------------|
    . .          . .

Riff 1b:

E------------------------------------|
H------------------------------------|
G------------2-----------2-----------|
D--------2-3---------2-3---3-2-------|
A---2—2—--------2-2------------------|
E---0—0---------0—0------------------|
    . .         . .

Riff 2:

E------------------------------------|
H------------------------------------|
G------------------------------------|
D-----------------------------9—7—7--|
A-----------------------------7—5—5--|
E---0-000-000-000-000-000-000--------|
    . ... ... ... ... ... ...

Riff 3:

E------------------------------------|
H------------------------------------|
G------------------------------------|
D--------9--7--5--4--5--4------------|
A--------7--5--3--2--3--2------------|
E---0-0------------------------------|
    . .

Riff 4:

E-----------------------------------------|
H-----------------------------------------|
G-----------------------------------------|
D-------------------------------------2---|
A---------------------------------2-3---3-|
E---0000-0000-0000-0000-0000-0000---------|
    .... .... .... .... .... ....

TEKST:

U svitaj zore pojavi se cudan lik,
Sav u krvi, sa sjekirom u ruci,
Zadah smrti polako se siri,
Osjecam da kraj polako dolazi.

Pobjeci nemam kud,
Njegova zrtva postajem.
Glasnik smrti po mene dolazi,
GLASNIK SMRTI, GLASNIK SMRTI!!!


Suport Serbian metal scene: http://www.serbian-metal.org/
Добавлено: 07.04.2012
Вам также может быть интересно:
Другие материалы по этой песне:
  • Аккорды и текст

Страница создана 07.04.2012
http://primanota.ru/bombardier/glasnik-smrti-chords.htm
Привет, Гость.
Предлагаем пройти революционный курс по гитаре.
Подарок от PrimaNota.Ru, забирай!