PrimaNota.ru - самый крупный в мире бесплатный архив песенных текстов, аккордов, табулатур и нот


Bomba Estereo - Somos Dos - таба, видео

Регистрация Запомнить меня
Войти через:  Facebook Google Twitter Vk Yandex Mail.ru

Bomba Estereo - Somos Dos - таба, видео

Печатать
Просмотров: 55
Bomba estereo - Somos dos

-This the tab for the lead guitar.
-It should be played with reverb and delay.

Tuning: EADGBe

2x
e ----3-3-3---------------------------------|
B ----------4-4-4-3-3-3---------------------|
G ----------------------5-5-5-3-3/5-5--5-5--|
D ------------------------------------------|
A ------------------------------------------|
E ------------------------------------------|

2x
e ----6-6-6-------------|
B ----------6-6-6-6-4---|
G ----------------------|
D ----------------------|
A ----------------------|
E ----------------------|

e ----3-3-3---------------------------------|
B ----------4-4-4-3-3-3---------------------|
G ----------------------5-5-5-3-3/5-5--5-5--|
D ------------------------------------------|
A ------------------------------------------|
E ------------------------------------------|

Timestamps for this version:
https://www.youtube.com/watch?v=-gnsHwTHWFA

00:00 Intro

02:47 Solo

03:26 Outro

You can also play with less volume while she's singing.
Добавлено: 17.12.2015
Другие материалы по этой песне:
  • Аккорды и текст

Страница создана 17.12.2015
http://primanota.ru/bomba-estereo/somos-dos-chords.htm
Привет, Гость.
Предлагаем пройти революционный курс по гитаре.
Подарок от PrimaNota.Ru, забирай!