PrimaNota.ru - самый крупный в мире бесплатный архив песенных текстов, аккордов, табулатур и нот


Bomb The Music Industry - Matchless Considerable Weirdness The B48 Home - таба, видео

Регистрация Запомнить меня
Войти через:  Facebook Google Twitter Vk Yandex Mail.ru

Bomb The Music Industry - Matchless Considerable Weirdness The B48 Home - таба, видео

Печатать
Просмотров: 149
Уроки эстрадного вокала в Санкт-Петербурге
Intro:

|-------------------------------------------------------|
|-------------------------------------------------------|
|-------------------------------------------------------|
|------------------------9----------------------------9-|
|--9h11-9-7----9h11-9h11-------9h11-9-7-----9h11-9h11---|
|0----------0-0--------------0----------0--0------------|

|-------------------------------------------------|
|11(x7)-8-8---6-8-6-4--11(x7)-8-11h13-11----------|
|----------------------------------------13-11----|
|----------------------------------------------7--|
|-------------------------------------------------|
|----------------------------------------------0--|

B
8pm. The city's leaking the spirits of happiness.

|-----------------------------------------------------------|
|-----------------------------------------------------------|
|-----------------------------------------------------------|
|99999999999999999999999999999999--------------------------9|
|99999999999999999999999999999999--9h11-9-7-----9h11-9h11---|
|77777777777777777777777777777777-0---------0-0-------------|

B                                           D#m Bb B
Faking small talk, getting warmer, fueled by a new power.

B                          D#m A B
|----------------------------------------------------------|
|----------------------------------------------------------|
|---------------------------8------------------------------|
|9999999999999999999999999998-8--9------------------------9|
|9999999999999999999999999996-8--9-9h11-9-7-----9h11-9h11--|
|777777777777777777777777777--6--70--------0-0-------------|

D#m               A
Tear up the north end.

  D#m     A       D#m     A
|-66--66--5-------66--66--5-------|
|-77--77--5-------77--77--5-------|
|-88--88--6-------88--88--6-------|
|-88--88--7-------88--88--7-------|
|-66--66--7---7---66--66--7---7---|
|-xx--xx--x-------xx--xx--x-------|

"Ah oh............Woah oh" (tabbed this in mind with having one guitar play the both the 
rhythm and lead parts)

|--------------------------------------------------------|
|--------------------------------------------------------|
|-----------------------------9---8-----9---8-----9---8--|
|--------------------------------------------------------|
|--9h11-9-7----9h11-9h11--9-9---9---9-9---9---9-9---9----|
|0----------0-0-----------7-7---7---7-7---7---7-7---7----|

B
The kids they all don't wanna be the kid who drinks a matchless or eden and never seems 
concerned 'bout the town.

Softly play the B power chord till:

|----------------------------------------|
|-14-16-17-9-7----14-16-17-11-11/14/-----|
|----------------------------------------|
|----------------------------------------|
|----------------------------------------|
|----------------------------------------|

B
But from where I'm standing in between two parked cars, sipping a tall boy, really don't 
seem that bad.

|----------------------------------------|
|-14-16-17-9999-7----14-16-17-17/21-19---|
|----------------------------------------|
|----------------------------------------|
|----------------------------------------|
|----------------------------------------|

D#m                              A        D#m
Sometimes you blow off your best friends. Sometimes you blow of your best
E
friends.

  D#m     A            D#m     E
|-66--66--5---55555----66--66--x------------|
|-77--77--5---55555----77--77--9---99999----|
|-88--88--6---66666----88--88--9---99999----|
|-88--88--7------------88--88--9---99999----|
|-66--66--7------------66--66--7------------|
|-xx--xx--x------------xx--xx--x------------|

E                                       B
Because you're getting stuck on all the shame your shitty future brings
E                                  B
Someone can't wake up 'cause their alarm clock plugs into their dreams
E                              B
Someone's waking up forgetting things that they don't need forgetting
  E
me.

(the lead plays this part below, but I couldn't really figure out a way to incorporate 
that in with the rhythm)

E                           B                E
|-----------------------------------------------------------------------|
|------------------------12------------------------------------------12-|
|9--911--118--89h11-9h11-----9--11--8---------9--911--118--89h11-9h11---|
|--------------9-----------------------9-11-----------------9-----------|
|-----------------------------------------------------------------------|
|-----------------------------------------------------------------------|

(Then slam on the B power chord)

B                                                             E
I was tired of feeling older so I took it up on myself to act dumber
B
I was always stuck on smarter but I traded all the smarts to just feel
E
younger. So let's get dumber!

  B  E  E*
|-7--7--12-|
|-7--9--12-|
|-8--9--13-|
|-9--9--14-|
|-9--7--14-|
|-7--x--12-|

B                               E                              E*
Someone's waking up forgetting, someone's waking up forgetting me.

The lead guitar plays this:

 B                    E
|------------------------------------------|
|------------------------------------------|
|11-8-11-811-118-11-8-13-9-13-913-139-13-9-|
|------------------------------------------|
|------------------------------------------|
|------------------------------------------|
E*
|--------------------------------------------------|
|--------------------------------------------------|
|16----16---16-16---16----16----16---16-16---16----|
|---14----14-----14----14----14----14-----14----14-|
|--------------------------------------------------|
|--------------------------------------------------|

Outro:
|------------------------|
|------------------------|
|---16h18-21-20-18-9/16~-|
|14----------------------|
|------------------------|
|------------------------|
Добавлено: 21.11.2013
Другие материалы по этой песне:
  • Аккорды и текст

Страница создана 21.11.2013
http://primanota.ru/bomb-the-music-industry/matchless-considerable-weirdness-the-b48-home-chords.htm
Привет, Гость.
Предлагаем пройти революционный курс по гитаре.
Подарок от PrimaNota.Ru, забирай!