PrimaNota.ru - самый крупный в мире бесплатный архив песенных текстов, аккордов, табулатур и нот


Bomb The Music Industry - Its Official Were Boring - таба, видео

Регистрация Запомнить меня
Войти через:  Facebook Google Twitter Vk Yandex Mail.ru

Bomb The Music Industry - Its Official Were Boring - таба, видео

Печатать
Просмотров: 113
Уроки эстрадного вокала в Санкт-Петербурге
If you want any more BTMI songs tabbed out email me chrishoward1993@hotmail.com (PLEASE
DONT ASK FOR ASOB TABS)



Intro:
  E  B  E  E? E  A
  .  .  .  .  .  .
--7--7--7--7--7--5--|
--9--7--9--10-9--5--|
--9--8--9--9--9--6--|
--9--9--9--9--9--7--|
--7--9--7--7--7--7--|
-----7-----------5--|

  E  B C#m G#
--7--7--4--4--|
--9--7--5--4--|
--9--8--6--5--|
--9--9--6--6--|
--7--9--4--6--|
-----7-----4--|

Prechorus

   A  B  E    A  B C#m   A  B  E    B
---5--7--7----5--7--4----5--7--7----7--|
---5--7--9----5--7--5----5--7--9----7--|
---6--8--9----6--8--6----6--8--9----8--|
---7--9--9----7--9--6----7--9--9----9--|
---7--9--7----7--9--4----7--9--7----9--|
---5--7-------5--7-------5--7-------7--|

Chorus

  E  B  E  A
--7--7--7--5--|
--9--7--9--5--|
--9--8--9--6--|
--9--9--9--7--|
--7--9--7--7--|
-----7-----5--|


Verse(Use ska upstrokes):

  E  B  E  E? A    E  B C#m G#
--7--7--7--7--5----7--7--4--4--|
--9--7--9--10-5----9--7--5--4--|
--9--8--9--9--6----9--8--6--5--|
--9--9--9--9--7----9--9--6--6--|
--7--9--7--7--7----7--9--4--6--|
-----7--------5-------7-----4--|

Chorus:

  A  B  E    A  B C#m   A  B  E    B
--5--7--7----5--7--4----5--9--7----7--|
--5--7--9----5--7--5----5--9--9----7--|
--6--8--9----6--8--6----6--8--9----8--|   x2
--7--9--9----7--9--6----7--9--9----9--|
--7--9--7----7--9--4----7--9--7----9--|
--5--7-------5--7-------5--7-------7--|


  E C#m A  E  B
--7--4--5--7--7--|
--9--5--5--9--7--|
--9--6--6--9--8--|   x2
--9--6--7--9--9--|
--7--4--7--7--9--|
--------5-----7--|

Solo:

--/121212-/121212-/121212-/121212-14p12-----12--------------|
--/121212-/121212-/121212-/121212------14p12---14p12--------|
----------------------------------------------------14-11v--|
------------------------------------------------------------|
------------------------------------------------------------|
------------------------------------------------------------|
(Use tremelo picking here)
-------------------------------------------------------------------------|
--/1212121212101010109999-/1212121212101010109999--10101010999977775555--|
-------------------------------------------------------------------------|
-------------------------------------------------------------------------|
-------------------------------------------------------------------------|
-------------------------------------------------------------------------|


  E  B C#m G#
--7--7--4--4--|
--9--7--5--4--|
--9--8--6--5--|
--9--9--6--6--|
--7--9--4--6--|
-----7-----4--|

  A  B  E  A  B C#m A  B  E  B
--5--7--7--5--7--4--5--7--7--7--|
--5--7--9--5--7--5--5--7--9--7--|
--6--8--9--6--8--6--6--8--9--8--|    x2
--7--9--9--7--9--6--7--9--9--9--|
--7--9--7--7--9--4--7--9--7--9--|
--5--7-----5--7-----5--7-----7--|

  E
--7-----------------------------------------------------|
--9-----------------------------------------------------|
--9-------------------------------------------------9---|
--9-----------------------------------------------------|
--7-----------------------------------------------------|
--------------------------------------------------------|
Добавлено: 13.10.2013
Другие материалы по этой песне:
  • Аккорды и текст

Страница создана 13.10.2013
http://primanota.ru/bomb-the-music-industry/its-official-were-boring-chords.htm
Привет, Гость.
Предлагаем пройти революционный курс по гитаре.
Подарок от PrimaNota.Ru, забирай!