PrimaNota.ru - самый крупный в мире бесплатный архив песенных текстов, аккордов, табулатур и нот


Bomb The Music Industry - 493 Ruth - аккорды и текст, видео

Регистрация Запомнить меня
Войти через:  Facebook Google Twitter Vk Yandex Mail.ru

Bomb The Music Industry - 493 Ruth - аккорды и текст, видео

Печатать
Просмотров: 89
493 Ruth
Bomb The Music Industry
My old email was chrishoward53@hotmail.com, but it got hacked/deleted or whatever,
so if you want anything else tabbed (or make any corrections) then email my new
address (chrishoward1993@hotmail.com) instead, because i probably won't check the
comments or messages on here.


Anyway, heres 493 Ruth, really easy (and really fun)



Intro:


                    D  A  G
------------      --2--0--3--|
------------      --3--2--0--|
------------ (x3) --2--2--0--|
------------      --0--2--0--|
--/9--0--2--      --0--0--2--|
------------      --------3--|


Proceed with G-D three times, and finish with D-A-G.


Verse: (x2)

  D  G  D  F# G  D  F# G  E  D  A  G
--------------------------------------|
--------------------------------------|
--5-----5--------5-----------5--------|
--5--5--5--4--5--5--4--5--2--5--7--5--|
--7--5--7--4--5--7--4--5--2--7--7--5--|
-----3-----2--3-----2--3--0-----5--3--|
  .  .  .  .  .  .  .  .  .  .  .  .
                 *  *  *  *

*Some chords arent muted

Chorus: (x2)

  D  G  Bm G
--2--3--2--3--|
--3--0--3--0--|
--2--0--4--0--|
--0--0--4--0--|
--0--2--2--2--|
-----3-----3--|


-Verse-



Bridge


  D  G  D  F# G  D  F# G  Em D  F# G  A* Em A
--2--3--2--2--3--2--2--1--0--2--2--3--0--0--0--|
--3--0--3--2--0--3--2--0--0--3--2--0--2--0--2--|
--2--0--2--3--0--2--3--0--0--2--3--0--0--0--2--|
--0--0--0--4--0--0--4--0--2--0--4--0--2--2--2--|
--0--2--0--4--2--0--4--2--2--0--4--2--1--2--0--|
-----3-----2--3-----2--3--0-----2--3-----0-----|

*Adim



-Chorus- (x2)



Bridge #2:

  D  F# G  A* Bm F# G  Em            D  Bm            G  D  F# Bm A  G  A
--2--2--3--0--2--2--3--0--         --2--2--         --3--2--2--2--0--3--0--|
--3--2--0--2--3--2--0--0--         --3--3--         --0--3--2--3--2--0--2--|
--2--3--0--0--4--3--0--0--  (x2)   --2--4--  (x2)   --0--2--3--4--2--0--2--|
--0--4--0--2--4--4--0--2--         --0--4--         --0--0--4--4--2--0--2--|
--0--4--2--1--2--4--2--2--         --0--2--         --2--0--4--2--0--2--0--|
-----2--3--------2--3--0--         --------         --3-----2--------3-----|



Outro:

  D  G  Bm Em D  G  Bm G  D  G
--2--3--2--0--2--3--2--1--2--3--|
--3--0--3--0--3--0--3--0--3--0--|
--2--0--4--0--2--0--4--0--2--0--|
--0--0--4--2--0--0--4--0--0--0--|
--0--2--2--2--0--2--2--2--0--2--|
-----3-----0-----3-----3-----3--|


End the song with D-A-G
Добавлено: 08.06.2013
Другие материалы по этой песне:
  • Аккорды и текст

Страница создана 08.06.2013
http://primanota.ru/bomb-the-music-industry/493-ruth-chords.htm
Привет, Гость.
Предлагаем пройти революционный курс по гитаре.
Подарок от PrimaNota.Ru, забирай!