PrimaNota.ru - самый крупный в мире бесплатный архив песенных текстов, аккордов, табулатур и нот


Bomb Factory - Worst Case - бас-таба, видео

Регистрация Запомнить меня
Войти через:  Facebook Google Twitter Vk Yandex Mail.ru

Bomb Factory - Worst Case - бас-таба, видео

Печатать
Просмотров: 166
Bomb Factory - Worst Case
Tabbed by nikdu67

This song is played in Drop D tuning
Smalls “°” under the tabs represent the tempo
“R” represent “rest”



Intro

G|--------------|--------------|--------------|-----------------|
D|--------------|--------------|--------------|-----------------|
A|--------------|--------------|--------------|-2---------3-3---|
D|-0------------|-4------------|-2------------|-----------------|
   °  °  °  °     °  °  °  °     °  °  °  °     °   °   °   °


G|--------------|--------------|--------------|-----------------|
D|--------------|--------------|--------------|-----------------|
A|--------------|--------------|--------------|-2-R-R---R-3-3---|
D|-0------------|-4------------|-2------------|-----------------|
   °  °  °  °     °  °  °  °     °  °  °  °     °   °   °   °






Main Riff

G|------------------|------------------|
D|*-----------------|-----------------*|    Play MAAAAAANY times, during the 2
A|*-----------------|-2-2-2-2---------*|    first verses and chorus
D|--0-0-0-0-2-2-2-2-|---------4-4-4-4--|
    °   °   °   °     °   °   °   °







Pre-solo

G|-----------------|-----------------|
D|-----------------|-----------------|
A|-R---R---R---R---|-R---R---R-------|
D|-----------------|-------------9\--|
   °   °   °   °     °   °   °   °


Main Riff again

G|------------------|------------------|
D|*-----------------|-----------------*|    Play many times
A|*-----------------|-2-2-2-2---------*|
D|--0-0-0-0-2-2-2-2-|---------4-4-4-4--|
    °   °   °   °     °   °   °   °



Bridge

G|------------------|------------------|
D|------------------|------------------|
A|------------------|-2-2-R------------|
D|--0-0-R---2-2-R---|---------4-4-R----|
    °   °   °   °     °   °   °   °



Main Riff again

G|------------------|------------------|
D|*-----------------|-----------------*|    Play 8 times
A|*-----------------|-2-2-2-2---------*|
D|--0-0-0-0-2-2-2-2-|---------4-4-4-4--|
    °   °   °   °     °   °   °   °



Outro

G|--------------|--------------|--------------|-----------------|
D|--------------|--------------|--------------|-----------------|
A|--------------|--------------|--------------|-2---------3-3---|
D|-0------------|-4------------|-2------------|-----------------|
   °  °  °  °     °  °  °  °     °  °  °  °     °   °   °   °


G|--------------|--------------|--------------|-----------------|
D|--------------|--------------|--------------|-----------------|
A|--------------|--------------|--------------|-2-R-R---R---R---|
D|-0------------|-4------------|-2------------|-----------------|
   °  °  °  °     °  °  °  °     °  °  °  °     °   °   °   °






Добавлено: 06.03.2012
Вам также может быть интересно:
Другие материалы по этой песне:
  • Аккорды и текст

Страница создана 06.03.2012
http://primanota.ru/bomb-factory/worst-case-chords.htm
Привет, Гость.
Предлагаем пройти революционный курс по гитаре.
Подарок от PrimaNota.Ru, забирай!