PrimaNota.ru - самый крупный в мире бесплатный архив песенных текстов, аккордов, табулатур и нот


Bomb Factory - Viper - бас-таба, видео

Регистрация Запомнить меня
Войти через:  Facebook Google Twitter Vk Yandex Mail.ru

Bomb Factory - Viper - бас-таба, видео

Печатать
Просмотров: 128
They're signed.

Website: http://www.bombfactory.jp/top.html
MySpace: http://www.myspace.com/bombfactory
Wiki: http://en.wikipedia.org/wiki/Bomb_Factory_%28band%29

=======================================================

Tabbed By: Unicorn Death
e-mail: albinojellyfish1@gmail.com

Tuning: Drop D, with all strings shifted a half-tone down. Weird tuning.

Bass kicks in at 0:12, after the drum roll.

Gb|---------|
Db|---------|
Ab|---------|
Db|---7\0---|


Main Riff:
Gb|---------------------------------------|
Db|---------------------------------------|
Ab|-----------3-5-----------3-5-----------|
Db|---0-0-3-5-----0-3-0-3-5-----0-3-5-----|

Rinse and repeat until 0:35.


Gb|---------------------------|
Db|---------------------------|
Ab|---------------------------|
Db|---0-0---3-3---0-0---3-3---|
The bass only plays when the guitar plays, so you'll have to listen to the song to 
out how long in between notes.


Main riff again.
Gb|---------------------------------------|
Db|---------------------------------------|
Ab|-----------3-5-----------3-5-----------|
Db|---0-0-3-5-----0-3-0-3-5-----0-3-5-----|

Rinse and repeat until 0:51.

Gb|--------5*-7*------------------|
Db|-------------------------------|
Ab|--------------------3-5--------|
Db|---0-0----------3-3------0-3-5-|

* = you have to pluck the string, if you're familiar with slap bass.


Gb|-----------------------------------------------------------|
Db|-----------------------------------------------------------|
Ab|--------------------------------------3h5-5-5-55-5555555---|
Db|---0-0---3-3---0-0---3-3---0(hold)-------------------------|


Gb|---------------------------------------------------------------------|
Db|---------------------------------------------------------------------|
Ab|---------------------------3-3-3-3-------------------------3-3-3-3---|
Db|---0-0-0-0-5-5-5-5-3-3-3-3---------0-0-0-0-5-5-5-5-3-3-3-3-----------|


Gb|-----------------------------------------------------------------------------|
Db|-----------------------------------------------------------------------------|
Ab|---------------------------3-3-3-3-------------------------------------------|
Db|---0-0-0-0-5-5-5-5-3-3-3-3---------8-8-8-8-8-8-8-8-10-10-10-10-10-10-10-10---|

Gb|--------------------------------------------|
Db|--------------------------------------------|
Ab|----------------3-5-----------3-5-----------|
Db|--7/0---0-0-3-5-----0-3-0-3-5-----0-3-5-----|


Main riff again for a really long time.
Gb|---------------------------------------|
Db|---------------------------------------|
Ab|-----------3-5-----------3-5-----------|
Db|---0-0-3-5-----0-3-0-3-5-----0-3-5-----|

When the lead guitar starts playing that solo riff at 1:37, the bass still plays the 
riff.
Listen to the song to figure out the intermittent points where the bass joins the lead guitar.

Chorus again,

Gb|---------------------------------------------------------------------|
Db|---------------------------------------------------------------------|
Ab|---------------------------3-3-3-3-------------------------3-3-3-3---|
Db|---0-0-0-0-5-5-5-5-3-3-3-3---------0-0-0-0-5-5-5-5-3-3-3-3-----------|

Gb|--------------------------------------------------------------------------|
Db|--------------------------------------------------------------------------|
Ab|---------------------------3-3-3-3----------------------------------------|
Db|---0-0-0-0-5-5-5-5-3-3-3-3---------8-8-8-8-8-8-8-8h10-10-10-10-10-10-10---|

Gb|---------------------------------------------------------------------|
Db|---------------------------------------------------------------------|
Ab|---------------------------3-3-3-3-------------------------3-3-3-3---|
Db|---0-0-0-0-5-5-5-5-3-3-3-3---------0-0-0-0-5-5-5-5-3-3-3-3-----------|

Gb|--------------------------------------------------------------------------|
Db|--------------------------------------------------------------------------|
Ab|---------------------------3-3-3-3----------------------------------------|
Db|---0-0-0-0-5-5-5-5-3-3-3-3---------8-8-8-8-8-8-8-8h10-10-10-10-10-10-10---|

And then repeat the main riff until the end,
Gb|---------------------------------------|
Db|---------------------------------------|
Ab|-----------3-5-----------3-5-----------|
Db|---0-0-3-5-----0-3-0-3-5-----0-3-5-----|

End with two open notes on the Db string and you're good to go.


| /  slide up
| \  slide down
| h  hammer-on
| p  pull-off
| ~  vibrato
| +  harmonic
| x  Mute note
Добавлено: 18.06.2012
Вам также может быть интересно:
Другие материалы по этой песне:
  • Аккорды и текст

Страница создана 18.06.2012
http://primanota.ru/bomb-factory/viper-chords.htm
Привет, Гость.
Предлагаем пройти революционный курс по гитаре.
Подарок от PrimaNota.Ru, забирай!