PrimaNota.ru - самый крупный в мире бесплатный архив песенных текстов, аккордов, табулатур и нот


Bolt Thrower - All That Remains - текст песни, таба, видео

Регистрация Запомнить меня
Войти через:  Facebook Google Twitter Vk Yandex Mail.ru

Bolt Thrower - All That Remains - текст песни, таба, видео

Печатать
Просмотров: 118
BOLT THROWER - ALL THAT REMAINS
=====================================

Tabbed by Heatseek3R (heat94)


Tuning: A Standard [A E D G C E] (+.25)

* - continue with picking the note
. - palm muting
p - pull-off

--------------------------------------


  0:00   (Intro & 1st Verse)

1|----------------------------------|
2|----------------------------------|
3|----------------------------------|
4|-2--------8------6------5--6--5---|
5|-2--------8------6------5--6--5---|
6|-0--------6------4------3--4--3---|



  0:58   (DIE!!!)

1|----------------------------------|
2|----------------------------------|
3|----------------------------------|
4|----------------------------------|
5|----------------------------------|
6|-0-000-0-0-0-0-0--4-3-1-4-3-1-3-2-|
   . ... . . . . .  . . . . . . . .

1|----------------------------------|
2|----------------------------------|
3|----------------------------------|
4|----------------------------------|
5|----------------------------------|
6|-0-000-0-0-0-0-0--4-3-1-4-3-1-3b--|
   . ... . . . . .  . . . . . .

I am not sure, if this part is right.

     
     
  1:30   (Verse 2,3,4)

1|----------------------------------------------|
2|----------------------------------------------|
3|----------------------------------------------|
4|---------------------------------------2p1-1*-|
5|-3p2-2*----4p3-3*----5p2-2*----3p2-2*---------|
6|----------------------------------------------|



  2:34   (Interlude)

1|----------------------|
2|----------------------|
3|----------------------|
4|-2-------3-----6---3--|
5|-2-------3-----6---3--|
6|-0-------1-----4---1--|

1|----------------------|
2|----------------------|
3|-------------------4--|
4|-2-------3-----6---4--|
5|-2-------3-----6---2--|
6|-0-------1-----4------|


  Then some variation of 2:34 part is played.

  3:26   (Outro & Last Verse)

1|--------------------------------------|
2|--------------------------------------|
3|--------------------------------------|
4|------------------5-0--8-0--5-0--8-0--|
5|------------------3p0--6p0--3p0--6p0--|
6|-0-000-0-0-0-0-0----------------------|

1|------------------------------------|
2|------------------------------------|
3|------------------------------------|
4|------------------5-0--8-0-8-0-8-0--|
5|------------------3p0--6p0-6p0-6p0--|
6|-0-000-0-0-0-0-0--------------------|



  4:28

1|-----|
2|-----|
3|-----|
4|-2-0-|
5|-2-0-|
6|-0p0-|

  THE END.
Добавлено: 19.08.2013
Другие материалы по этой песне:
  • Аккорды и текст

Страница создана 04.04.2012
http://primanota.ru/bolt-thrower/all-that-remains-chords.htm
Привет, Гость.
Предлагаем пройти революционный курс по гитаре.
Подарок от PrimaNota.Ru, забирай!